999
DXF file: t6-B_motionrange.dxf
999
Pro/ENGINEER 2018360 by Parametric Technology Corporation
  0
SECTION
  2
HEADER
  9
$ACADVER
  1
AC1021
  9
$DWGCODEPAGE
  3
ANSI_932
  9
$EXTMAX
 10
841.0001734009
 20
593.9999184713
 30
0.0
  9
$EXTMIN
 10
0.0
 20
0.0
 30
0.0
  9
$LIMMIN
 10
0.0
 20
0.0
  9
$LIMMAX
 10
841.0001734009
 20
593.9999184713
  9
$VIEWCTR
 10
420.5000867004
 20
296.9999592356
  9
$VIEWSIZE
 40
593.9999184713
  9
$CLAYER
  8
0
  9
$LTSCALE
 40
46.255009537
  9
$CELTYPE
  6
BYLAYER
  9
$DIMSCALE
 40
1.0
  9
$DIMASZ
 40
1.5
  9
$DIMEXO
 40
1.0
  9
$DIMDLI
 40
31.9580065892
  9
$DIMEXE
 40
1.0
  9
$DIMCEN
 40
7.5690015606
  9
$DIMLFAC
 40
1.0
  9
$DIMBLK
  1
_OPEN
  9
$DIMALT
 70
0
  9
$DIMALTF
 40
25.4
  9
$DIMTXT
 40
3.0
  9
$DIMTOL
 70
1
  9
$DIMLIM
 70
0
  9
$DIMTFAC
 40
1.0
  9
$DIMTP
 40
0.001
  9
$DIMTM
 40
0.001
  9
$DIMGAP
 40
0.09
  9
$DIMDSEP
 70
46
  9
$AUNITS
 70
0
  9
$PDMODE
 70
3
  9
$PDSIZE
 40
5.0
  9
$HANDSEED
  5
92A
  9
$TILEMODE
 70
1
  9
$MEASUREMENT
 70
0
  9
$INSUNITS
 70
1
  0
ENDSEC
  0
SECTION
  2
CLASSES
  0
CLASS
  1
ACDBDICTIONARYWDFLT
  2
AcDbDictionaryWithDefault
  3
AutoCAD 2000
 90
0
 91
1
280
0
281
0
  0
CLASS
  1
ACDBPLACEHOLDER
  2
AcDbPlaceHolder
  3
AutoCAD 2000
 90
0
 91
1
280
0
281
0
  0
CLASS
  1
LAYOUT
  2
AcDbLayout
  3
AutoCAD 2000
 90
0
 91
0
280
0
281
0
  0
ENDSEC
  0
SECTION
  2
TABLES
  0
TABLE
  2
VPORT
  5
8
100
AcDbSymbolTable
 70
2
  0
VPORT
  5
1F4
100
AcDbSymbolTableRecord
100
AcDbViewportTableRecord
  2
*ACTIVE
 70
0
 10
0.0
 20
0.0
 11
1.0
 21
1.0
 12
420.5000867004
 22
296.9999592356
 13
0.0
 23
0.0
 14
1.0
 24
1.0
 15
0.0
 25
0.0
 16
0.0
 26
0.0
 36
1.0
 17
0.0
 27
0.0
 37
0.0
 40
593.9999184713
 41
1.4158254021
 42
50.0
 43
0.0
 44
0.0
 50
0.0
 51
0.0
 71
0
 72
100
 73
1
 74
1
 75
0
 76
0
 77
0
 78
0
  0
ENDTAB
  0
TABLE
  2
LTYPE
  5
5
100
AcDbSymbolTable
 70
6
  0
LTYPE
  5
14
100
AcDbSymbolTableRecord
100
AcDbLinetypeTableRecord
  2
BYBLOCK
 70
0
  3

 72
65
 73
0
 40
0.0
  0
LTYPE
  5
15
100
AcDbSymbolTableRecord
100
AcDbLinetypeTableRecord
  2
BYLAYER
 70
0
  3

 72
65
 73
0
 40
0.0
  0
LTYPE
  5
16
100
AcDbSymbolTableRecord
100
AcDbLinetypeTableRecord
  2
CONTINUOUS
 70
64
  3
Solid line
 72
65
 73
0
 40
0.0
  0
LTYPE
  5
1F5
100
AcDbSymbolTableRecord
100
AcDbLinetypeTableRecord
  2
CENTER
 70
64
  3
____ _ ____ _ ____ _ ____ _ ____ _ ____ _ ____
 72
65
 73
4
 40
0.6
 49
0.375
 74
0
 49
-0.075
 74
0
 49
0.075
 74
0
 49
-0.075
 74
0
  0
LTYPE
  5
1F6
100
AcDbSymbolTableRecord
100
AcDbLinetypeTableRecord
  2
HIDDEN
 70
64
  3
- - - - - - - - - - - - - - - - - - - -
 72
65
 73
2
 40
0.2
 49
0.1
 74
0
 49
-0.1
 74
0
  0
LTYPE
  5
1F7
100
AcDbSymbolTableRecord
100
AcDbLinetypeTableRecord
  2
PHANTOM
 70
64
  3
_____ _ _ _____ _ _ _____ _ _ _____
 72
65
 73
6
 40
0.8
 49
0.45
 74
0
 49
-0.05
 74
0
 49
0.1
 74
0
 49
-0.05
 74
0
 49
0.1
 74
0
 49
-0.05
 74
0
  0
LTYPE
  5
1F8
100
AcDbSymbolTableRecord
100
AcDbLinetypeTableRecord
  2
DOT
 70
64
  3
. . . . . . . . . . . . . . . . . . . .
 72
65
 73
2
 40
0.2
 49
0.1
 74
0
 49
-0.1
 74
0
  0
LTYPE
  5
1F9
100
AcDbSymbolTableRecord
100
AcDbLinetypeTableRecord
  2
DASHED
 70
64
  3
- - - - - - - - - - - - - - - - - - - -
 72
65
 73
2
 40
0.2
 49
0.1
 74
0
 49
-0.1
 74
0
  0
LTYPE
  5
1FA
100
AcDbSymbolTableRecord
100
AcDbLinetypeTableRecord
  2
SOLIDFONT
 70
64
  3
Solid line
 72
65
 73
0
 40
0.0
  0
LTYPE
  5
1FB
100
AcDbSymbolTableRecord
100
AcDbLinetypeTableRecord
  2
SOLIDFONT
 70
64
  3
Solid line
 72
65
 73
0
 40
0.0
  0
LTYPE
  5
1FC
100
AcDbSymbolTableRecord
100
AcDbLinetypeTableRecord
  2
SOLIDFONT
 70
64
  3
Solid line
 72
65
 73
0
 40
0.0
  0
LTYPE
  5
1FD
100
AcDbSymbolTableRecord
100
AcDbLinetypeTableRecord
  2
SOLIDFONT
 70
64
  3
Solid line
 72
65
 73
0
 40
0.0
  0
LTYPE
  5
1FE
100
AcDbSymbolTableRecord
100
AcDbLinetypeTableRecord
  2
SOLIDFONT
 70
64
  3
Solid line
 72
65
 73
0
 40
0.0
  0
LTYPE
  5
1FF
100
AcDbSymbolTableRecord
100
AcDbLinetypeTableRecord
  2
SOLIDFONT
 70
64
  3
Solid line
 72
65
 73
0
 40
0.0
  0
LTYPE
  5
200
100
AcDbSymbolTableRecord
100
AcDbLinetypeTableRecord
  2
SOLIDFONT
 70
64
  3
Solid line
 72
65
 73
0
 40
0.0
  0
LTYPE
  5
201
100
AcDbSymbolTableRecord
100
AcDbLinetypeTableRecord
  2
SOLIDFONT
 70
64
  3
Solid line
 72
65
 73
0
 40
0.0
  0
LTYPE
  5
202
100
AcDbSymbolTableRecord
100
AcDbLinetypeTableRecord
  2
SOLIDFONT
 70
64
  3
Solid line
 72
65
 73
0
 40
0.0
  0
LTYPE
  5
203
100
AcDbSymbolTableRecord
100
AcDbLinetypeTableRecord
  2
SOLIDFONT
 70
64
  3
Solid line
 72
65
 73
0
 40
0.0
  0
LTYPE
  5
204
100
AcDbSymbolTableRecord
100
AcDbLinetypeTableRecord
  2
SOLIDFONT
 70
64
  3
Solid line
 72
65
 73
0
 40
0.0
  0
LTYPE
  5
205
100
AcDbSymbolTableRecord
100
AcDbLinetypeTableRecord
  2
SOLIDFONT
 70
64
  3
Solid line
 72
65
 73
0
 40
0.0
  0
LTYPE
  5
206
100
AcDbSymbolTableRecord
100
AcDbLinetypeTableRecord
  2
SOLIDFONT
 70
64
  3
Solid line
 72
65
 73
0
 40
0.0
  0
ENDTAB
  0
TABLE
  2
LAYER
  5
2
100
AcDbSymbolTable
 70
36
  0
LAYER
  5
10
100
AcDbSymbolTableRecord
100
AcDbLayerTableRecord
  2
0
 70
0
 62
7
  6
CONTINUOUS
370
-3
390
F
  0
LAYER
  5
207
100
AcDbSymbolTableRecord
100
AcDbLayerTableRecord
  2
DEFAULT_1
 70
0
 62
7
  6
CENTER
370
-3
390
F
  0
LAYER
  5
208
100
AcDbSymbolTableRecord
100
AcDbLayerTableRecord
  2
DEFAULT_2
 70
0
 62
8
  6
HIDDEN
370
-3
390
F
  0
LAYER
  5
209
100
AcDbSymbolTableRecord
100
AcDbLayerTableRecord
  2
DEFAULT_3
 70
0
 62
7
  6
PHANTOM
370
-3
390
F
  0
LAYER
  5
20A
100
AcDbSymbolTableRecord
100
AcDbLayerTableRecord
  2
_____1
 70
0
 62
7
  6
CONTINUOUS
370
-3
390
F
  0
ENDTAB
  0
TABLE
  2
STYLE
  5
3
100
AcDbSymbolTable
 70
1
  0
STYLE
  5
11
100
AcDbSymbolTableRecord
100
AcDbTextStyleTableRecord
  2
STANDARD
 70
0
 40
0.0
 41
0.8
 50
0.0
 71
0
 42
0.2
  3
txt
  4

  0
STYLE
  5
20B
100
AcDbSymbolTableRecord
100
AcDbTextStyleTableRecord
  2
TEXTSTYLE_1
 70
0
 40
0.0
 41
0.8
 50
0.0
 71
0
 42
0.2
  3
gdt
  4

  0
ENDTAB
  0
TABLE
  2
VIEW
  5
6
100
AcDbSymbolTable
 70
0
  0
ENDTAB
  0
TABLE
  2
UCS
  5
7
100
AcDbSymbolTable
 70
0
  0
ENDTAB
  0
TABLE
  2
APPID
  5
9
100
AcDbSymbolTable
 70
1
  0
APPID
  5
20C
100
AcDbSymbolTableRecord
100
AcDbRegAppTableRecord
  2
ACAD
 70
0
  0
ENDTAB
  0
TABLE
  2
BLOCK_RECORD
  5
1
100
AcDbSymbolTable
 70
0
  0
BLOCK_RECORD
  5
20D
100
AcDbSymbolTableRecord
100
AcDbBlockTableRecord
  2
*Model_Space
  0
BLOCK_RECORD
  5
20E
100
AcDbSymbolTableRecord
100
AcDbBlockTableRecord
  2
*Paper_Space
  0
ENDTAB
  0
TABLE
  2
DIMSTYLE
  5
A
100
AcDbSymbolTable
 70
1
100
AcDbDimStyleTable
 71
0
  0
DIMSTYLE
105
20F
100
AcDbSymbolTableRecord
100
AcDbDimStyleTableRecord
  2
STANDARD
 70
0
  3

  4

 40
1.0
 41
1.5
 42
1.0
 43
0.38
 44
1.0
 45
0.0
 46
0.0
 47
0.001
 48
0.001
140
3.0
141
0.09
142
0.0
143
25.4
144
1.0
145
0.0
146
1.0
147
0.09
 71
1.0
 72
0.0
 73
0
 74
0
 75
0
 76
0
 77
1
 78
8
 79
2
170
0
171
2
172
0
173
0
174
0
175
0
176
0
177
0
178
0
270
2
179
3
271
3
272
3
273
2
274
2
275
0
280
0
281
0
282
0
283
1
284
8
285
0
286
0
287
3
288
0
340
11
278
46
  0
ENDTAB
  0
ENDSEC
  0
SECTION
  2
BLOCKS
  0
BLOCK
  5
20
100
AcDbEntity
  8
0
100
AcDbBlockBegin
  2
*Model_Space
 70
0
 10
0.0
 20
0.0
 30
0.0
  3
*Model_Space
  1

  0
ENDBLK
  5
21
100
AcDbEntity
  8
0
100
AcDbBlockEnd
  0
BLOCK
  5
1C
100
AcDbEntity
  8
0
100
AcDbBlockBegin
  2
*Paper_Space
 70
0
 10
0.0
 20
0.0
 30
0.0
  3
*Paper_Space
  1

  0
ENDBLK
  5
1D
100
AcDbEntity
  8
0
100
AcDbBlockEnd
  0
ENDSEC
  0
SECTION
  2
ENTITIES
  0
SPLINE
  5
210
100
AcDbEntity
  8
_____1
100
AcDbSpline
 62
7
  6
CONTINUOUS
 70
2
 71
3
 72
17
 73
13
 74
0
 42
0.0000001
 43
0.0000001
 44
0.0000000001
 40
0.0
 40
0.0
 40
0.0
 40
0.0
 40
1.0
 40
1.0
 40
1.0
 40
2.0
 40
2.0
 40
2.0
 40
3.0
 40
3.0
 40
3.0
 40
4.0
 40
4.0
 40
4.0
 40
4.0
 10
335.9913776829
 20
363.9760605644
 30
0.0
 10
335.9913776829
 20
373.2959051259
 30
0.0
 10
328.4362832838
 20
380.8511717798
 30
0.0
 10
319.1164387223
 20
380.8511717798
 30
0.0
 10
309.7965941608
 20
380.8511717798
 30
0.0
 10
302.2414997617
 20
373.2959051259
 30
0.0
 10
302.2414997617
 20
363.9760605644
 30
0.0
 10
302.2414997617
 20
354.6562160029
 30
0.0
 10
309.7965941608
 20
347.1011216038
 30
0.0
 10
319.1164387223
 20
347.1011216038
 30
0.0
 10
328.4362832838
 20
347.1011216038
 30
0.0
 10
335.9913776829
 20
354.6562160029
 30
0.0
 10
335.9913776829
 20
363.9760605644
 30
0.0
  0
SPLINE
  5
211
100
AcDbEntity
  8
_____1
100
AcDbSpline
 62
7
  6
CONTINUOUS
 70
2
 71
3
 72
17
 73
13
 74
0
 42
0.0000001
 43
0.0000001
 44
0.0000000001
 40
0.0
 40
0.0
 40
0.0
 40
0.0
 40
1.0
 40
1.0
 40
1.0
 40
2.0
 40
2.0
 40
2.0
 40
3.0
 40
3.0
 40
3.0
 40
4.0
 40
4.0
 40
4.0
 40
4.0
 10
400.3664319203
 20
363.9760605644
 30
0.0
 10
400.3664319203
 20
408.8491182789
 30
0.0
 10
363.9894964368
 20
445.2260537624
 30
0.0
 10
319.1164387223
 20
445.2260537624
 30
0.0
 10
274.2433810078
 20
445.2260537624
 30
0.0
 10
237.8664455243
 20
408.8491182789
 30
0.0
 10
237.8664455243
 20
363.9760605644
 30
0.0
 10
237.8664455243
 20
319.1030028499
 30
0.0
 10
274.2433810078
 20
282.7262396212
 30
0.0
 10
319.1164387223
 20
282.7262396212
 30
0.0
 10
363.9894964368
 20
282.7262396212
 30
0.0
 10
400.3664319203
 20
319.1030028499
 30
0.0
 10
400.3664319203
 20
363.9760605644
 30
0.0
  0
SPLINE
  5
212
100
AcDbEntity
  8
_____1
100
AcDbSpline
 62
7
  6
CONTINUOUS
 70
2
 71
3
 72
17
 73
13
 74
0
 42
0.0000001
 43
0.0000001
 44
0.0000000001
 40
0.0
 40
0.0
 40
0.0
 40
0.0
 40
1.0
 40
1.0
 40
1.0
 40
2.0
 40
2.0
 40
2.0
 40
3.0
 40
3.0
 40
3.0
 40
4.0
 40
4.0
 40
4.0
 40
4.0
 10
339.7516994051
 20
363.9760605644
 30
0.0
 10
339.7516994051
 20
375.3726086844
 30
0.0
 10
330.5129868423
 20
384.6114935019
 30
0.0
 10
319.1164387223
 20
384.6114935019
 30
0.0
 10
307.7198906023
 20
384.6114935019
 30
0.0
 10
298.4811780395
 20
375.3726086844
 30
0.0
 10
298.4811780395
 20
363.9760605644
 30
0.0
 10
298.4811780395
 20
352.5795124444
 30
0.0
 10
307.7198906023
 20
343.3407998816
 30
0.0
 10
319.1164387223
 20
343.3407998816
 30
0.0
 10
330.5129868423
 20
343.3407998816
 30
0.0
 10
339.7516994051
 20
352.5795124444
 30
0.0
 10
339.7516994051
 20
363.9760605644
 30
0.0
  0
SPLINE
  5
213
100
AcDbEntity
  8
_____1
100
AcDbSpline
 62
7
  6
CONTINUOUS
 70
2
 71
3
 72
17
 73
13
 74
0
 42
0.0000001
 43
0.0000001
 44
0.0000000001
 40
0.0
 40
0.0
 40
0.0
 40
0.0
 40
1.0
 40
1.0
 40
1.0
 40
2.0
 40
2.0
 40
2.0
 40
3.0
 40
3.0
 40
3.0
 40
4.0
 40
4.0
 40
4.0
 40
4.0
 10
332.866503823
 20
445.2260537624
 30
0.0
 10
332.866503823
 20
452.8199054858
 30
0.0
 10
326.7104627004
 20
458.9761188631
 30
0.0
 10
319.1164387223
 20
458.9761188631
 30
0.0
 10
311.5225869989
 20
458.9761188631
 30
0.0
 10
305.3663736216
 20
452.8199054858
 30
0.0
 10
305.3663736216
 20
445.2260537624
 30
0.0
 10
305.3663736216
 20
437.632202039
 30
0.0
 10
311.5225869989
 20
431.4761609164
 30
0.0
 10
319.1164387223
 20
431.4761609164
 30
0.0
 10
326.7104627004
 20
431.4761609164
 30
0.0
 10
332.866503823
 20
437.632202039
 30
0.0
 10
332.866503823
 20
445.2260537624
 30
0.0
  0
LINE
  5
214
100
AcDbEntity
  8
0
100
AcDbLine
 62
7
  6
CONTINUOUS
 10
0.0
 20
0.0
 11
0.0
 21
593.9999184713
  0
LINE
  5
215
100
AcDbEntity
  8
_____1
100
AcDbLine
 62
7
  6
CONTINUOUS
 10
0.0
 20
0.0
 11
0.0
 21
593.9999184713
  0
LINE
  5
216
100
AcDbEntity
  8
_____1
100
AcDbLine
 62
7
  6
CONTINUOUS
 10
128.5630397899
 20
585.2426580026
 11
128.2931165586
 21
584.9425901858
  0
LINE
  5
217
100
AcDbEntity
  8
_____1
100
AcDbLine
 62
7
  6
CONTINUOUS
 10
128.0231933274
 20
586.7426525768
 11
128.2931165586
 21
587.0425481388
  0
LINE
  5
218
100
AcDbEntity
  8
_____1
100
AcDbLine
 62
7
  6
CONTINUOUS
 10
128.833135276
 20
585.5425535646
 11
128.5630397899
 21
585.2426580026
  0
LINE
  5
219
100
AcDbEntity
  8
_____1
100
AcDbLine
 62
7
  6
CONTINUOUS
 10
14.3042087095
 20
297.3014050906
 11
14.3042087095
 21
299.4015352984
  0
LINE
  5
21A
100
AcDbEntity
  8
_____1
100
AcDbLine
 62
7
  6
CONTINUOUS
 10
11.4692396347
 20
297.3014050906
 11
12.0599012557
 21
299.4015352984
  0
LINE
  5
21B
100
AcDbEntity
  8
_____1
100
AcDbLine
 62
7
  6
CONTINUOUS
 10
127.8881455843
 20
586.4425847601
 11
128.0231933274
 21
586.7426525768
  0
LINE
  5
21C
100
AcDbEntity
  8
_____1
100
AcDbLine
 62
7
  6
CONTINUOUS
 10
128.2931165586
 20
584.9425901858
 11
128.0231933274
 21
584.342626807
  0
LINE
  5
21D
100
AcDbEntity
  8
_____1
100
AcDbLine
 62
7
  6
CONTINUOUS
 10
128.968183019
 20
585.8426213813
 11
128.833135276
 21
585.5425535646
  0
LINE
  5
21E
100
AcDbEntity
  8
_____1
100
AcDbLine
 62
7
  6
CONTINUOUS
 10
12.0599012557
 20
299.4015352984
 11
12.6505628766
 21
297.3014050906
  0
LINE
  5
21F
100
AcDbEntity
  8
_____1
100
AcDbLine
 62
7
  6
CONTINUOUS
 10
60.0800536959
 20
587.1000812334
 11
60.0800536959
 21
583.4999564513
  0
LINE
  5
220
100
AcDbEntity
  8
_____1
100
AcDbLine
 62
7
  6
CONTINUOUS
 10
14.3042087095
 20
299.4015352984
 11
13.4773857931
 21
297.8264376426
  0
LINE
  5
221
100
AcDbEntity
  8
_____1
100
AcDbLine
 62
7
  6
CONTINUOUS
 10
194.4849419002
 20
585.8999822211
 11
194.2150186689
 21
585.5999144044
  0
LINE
  5
222
100
AcDbEntity
  8
_____1
100
AcDbLine
 62
7
  6
CONTINUOUS
 10
194.4849419002
 20
583.8000242681
 11
194.2150186689
 21
583.4999564513
  0
LINE
  5
223
100
AcDbEntity
  8
_____1
100
AcDbLine
 62
7
  6
CONTINUOUS
 10
193.6749999516
 20
586.8000134167
 11
193.9450954376
 21
587.1000812334
  0
LINE
  5
224
100
AcDbEntity
  8
_____1
100
AcDbLine
 62
7
  6
CONTINUOUS
 10
207.5749267059
 20
13.3645589159
 11
209.149852107
 21
12.5377359995
  0
LINE
  5
225
100
AcDbEntity
  8
_____1
100
AcDbLine
 62
7
  6
CONTINUOUS
 10
135.3267957561
 20
75.5654133926
 11
135.5767374336
 21
75.2656900854
  0
LINE
  5
226
100
AcDbEntity
  8
_____1
100
AcDbLine
 62
7
  6
CONTINUOUS
 10
137.0767320078
 20
75.5654133926
 11
137.3266736853
 21
75.2656900854
  0
LINE
  5
227
100
AcDbEntity
  8
_____1
100
AcDbLine
 62
7
  6
CONTINUOUS
 10
134.5766262142
 20
74.6655544518
 11
134.3266845367
 21
74.9656222686
  0
LINE
  5
228
100
AcDbEntity
  8
_____1
100
AcDbLine
 62
7
  6
CONTINUOUS
 10
135.826679111
 20
74.6655544518
 11
135.5767374336
 21
74.9656222686
  0
LINE
  5
229
100
AcDbEntity
  8
_____1
100
AcDbLine
 62
7
  6
CONTINUOUS
 10
93.9999470794
 20
582.5000174868
 11
93.9999470794
 21
586.4999455999
  0
LINE
  5
22A
100
AcDbEntity
  8
_____1
100
AcDbLine
 62
7
  6
CONTINUOUS
 10
128.0231933274
 20
584.342626807
 11
127.8881455843
 21
583.4425956115
  0
LINE
  5
22B
100
AcDbEntity
  8
_____1
100
AcDbLine
 62
7
  6
CONTINUOUS
 10
194.6199896432
 20
586.2000500379
 11
194.4849419002
 21
585.8999822211
  0
LINE
  5
22C
100
AcDbEntity
  8
_____1
100
AcDbLine
 62
7
  6
CONTINUOUS
 10
194.7550373862
 20
584.3999876469
 11
194.4849419002
 21
583.8000242681
  0
LINE
  5
22D
100
AcDbEntity
  8
_____1
100
AcDbLine
 62
7
  6
CONTINUOUS
 10
209.674884659
 20
10.5295898411
 11
207.5749267059
 21
11.1204237168
  0
LINE
  5
22E
100
AcDbEntity
  8
_____1
100
AcDbLine
 62
7
  6
CONTINUOUS
 10
134.8267401464
 20
74.5156927982
 11
134.5766262142
 21
74.6655544518
  0
LINE
  5
22F
100
AcDbEntity
  8
_____1
100
AcDbLine
 62
7
  6
CONTINUOUS
 10
136.0767930432
 20
74.5156927982
 11
135.826679111
 21
74.6655544518
  0
LINE
  5
230
100
AcDbEntity
  8
_____1
100
AcDbLine
 62
7
  6
CONTINUOUS
 10
136.5766763981
 20
75.8654812093
 11
136.8267903304
 21
75.7156195557
  0
LINE
  5
231
100
AcDbEntity
  8
_____1
100
AcDbLine
 62
7
  6
CONTINUOUS
 10
135.0766818239
 20
75.7156195557
 11
135.3267957561
 21
75.5654133926
  0
LINE
  5
232
100
AcDbEntity
  8
_____1
100
AcDbLine
 62
7
  6
CONTINUOUS
 10
136.3267347207
 20
74.3654866351
 11
136.0767930432
 21
74.5156927982
  0
LINE
  5
233
100
AcDbEntity
  8
_____1
100
AcDbLine
 62
7
  6
CONTINUOUS
 10
136.8267903304
 20
75.7156195557
 11
137.0767320078
 21
75.5654133926
  0
LINE
  5
234
100
AcDbEntity
  8
_____1
100
AcDbLine
 62
7
  6
CONTINUOUS
 10
135.5767374336
 20
104.7384819617
 11
135.826679111
 21
104.4387586544
  0
LINE
  5
235
100
AcDbEntity
  8
_____1
100
AcDbLine
 62
7
  6
CONTINUOUS
 10
137.0767320078
 20
106.9884738231
 11
137.3266736853
 21
106.6887505159
  0
LINE
  5
236
100
AcDbEntity
  8
_____1
100
AcDbLine
 62
7
  6
CONTINUOUS
 10
145.116379087
 20
92.9910508665
 11
145.3664930192
 21
92.6909830497
  0
LINE
  5
237
100
AcDbEntity
  8
_____1
100
AcDbLine
 62
7
  6
CONTINUOUS
 10
135.826679111
 20
104.4387586544
 11
136.0767930432
 21
104.1386908377
  0
LINE
  5
238
100
AcDbEntity
  8
_____1
100
AcDbLine
 62
7
  6
CONTINUOUS
 10
145.116379087
 20
97.9409640597
 11
145.3664930192
 21
97.640896243
  0
LINE
  5
239
100
AcDbEntity
  8
_____1
100
AcDbLine
 62
7
  6
CONTINUOUS
 10
142.6164455481
 20
92.390915233
 11
142.3665038707
 21
92.6909830497
  0
LINE
  5
23A
100
AcDbEntity
  8
_____1
100
AcDbLine
 62
7
  6
CONTINUOUS
 10
134.5766262142
 20
103.8386230209
 11
134.3266845367
 21
104.1386908377
  0
LINE
  5
23B
100
AcDbEntity
  8
_____1
100
AcDbLine
 62
7
  6
CONTINUOUS
 10
134.5766262142
 20
106.3886826991
 11
134.3266845367
 21
106.6887505159
  0
LINE
  5
23C
100
AcDbEntity
  8
_____1
100
AcDbLine
 62
7
  6
CONTINUOUS
 10
143.6163845127
 20
97.0407606094
 11
143.3664428353
 21
97.3408284262
  0
LINE
  5
23D
100
AcDbEntity
  8
_____1
100
AcDbLine
 62
7
  6
CONTINUOUS
 10
134.5766262142
 20
108.7885362141
 11
134.3266845367
 21
109.0886040309
  0
LINE
  5
23E
100
AcDbEntity
  8
_____1
100
AcDbLine
 62
7
  6
CONTINUOUS
 10
137.0767320078
 20
109.3886718477
 11
137.3266736853
 21
109.0886040309
  0
LINE
  5
23F
100
AcDbEntity
  8
_____1
100
AcDbLine
 62
7
  6
CONTINUOUS
 10
134.5766262142
 20
138.663026224
 11
134.3266845367
 21
138.9630940408
  0
LINE
  5
240
100
AcDbEntity
  8
_____1
100
AcDbLine
 62
7
  6
CONTINUOUS
 10
143.8664984449
 20
93.1409125201
 11
144.1164401224
 21
92.6909830497
  0
LINE
  5
241
100
AcDbEntity
  8
_____1
100
AcDbLine
 62
7
  6
CONTINUOUS
 10
138.4266926737
 20
77.2386962698
 11
138.0766709724
 21
78.738690844
  0
LINE
  5
242
100
AcDbEntity
  8
_____1
100
AcDbLine
 62
7
  6
CONTINUOUS
 10
137.7266492711
 20
83.1887206823
 11
138.0766709724
 21
81.6887261081
  0
LINE
  5
243
100
AcDbEntity
  8
_____1
100
AcDbLine
 62
7
  6
CONTINUOUS
 10
128.968183019
 20
586.4425847601
 11
128.968183019
 21
585.8426213813
  0
LINE
  5
244
100
AcDbEntity
  8
0
100
AcDbLine
 62
7
  6
CONTINUOUS
 10
0.0
 20
0.0
 11
841.0001734009
 21
0.0
  0
LINE
  5
245
100
AcDbEntity
  8
_____1
100
AcDbLine
 62
7
  6
CONTINUOUS
 10
841.0001734009
 20
0.0
 11
0.0
 21
0.0
  0
LINE
  5
246
100
AcDbEntity
  8
_____1
100
AcDbLine
 62
7
  6
CONTINUOUS
 10
134.8267401464
 20
103.6887613673
 11
134.5766262142
 21
103.8386230209
  0
LINE
  5
247
100
AcDbEntity
  8
_____1
100
AcDbLine
 62
7
  6
CONTINUOUS
 10
134.8267401464
 20
108.6386745605
 11
134.5766262142
 21
108.7885362141
  0
LINE
  5
248
100
AcDbEntity
  8
_____1
100
AcDbLine
 62
7
  6
CONTINUOUS
 10
142.8663872256
 20
92.2410535794
 11
142.6164455481
 21
92.390915233
  0
LINE
  5
249
100
AcDbEntity
  8
_____1
100
AcDbLine
 62
7
  6
CONTINUOUS
 10
144.8664374095
 20
93.1409125201
 11
145.116379087
 21
92.9910508665
  0
LINE
  5
24A
100
AcDbEntity
  8
_____1
100
AcDbLine
 62
7
  6
CONTINUOUS
 10
144.8664374095
 20
98.0908257133
 11
145.116379087
 21
97.9409640597
  0
LINE
  5
24B
100
AcDbEntity
  8
_____1
100
AcDbLine
 62
7
  6
CONTINUOUS
 10
136.8267903304
 20
109.5385335013
 11
137.0767320078
 21
109.3886718477
  0
LINE
  5
24C
100
AcDbEntity
  8
_____1
100
AcDbLine
 62
7
  6
CONTINUOUS
 10
136.0767930432
 20
104.1386908377
 11
136.5766763981
 21
103.8386230209
  0
LINE
  5
24D
100
AcDbEntity
  8
_____1
100
AcDbLine
 62
7
  6
CONTINUOUS
 10
134.8267401464
 20
106.2384765359
 11
134.5766262142
 21
106.3886826991
  0
LINE
  5
24E
100
AcDbEntity
  8
_____1
100
AcDbLine
 62
7
  6
CONTINUOUS
 10
135.3267957561
 20
104.8886881248
 11
135.5767374336
 21
104.7384819617
  0
LINE
  5
24F
100
AcDbEntity
  8
_____1
100
AcDbLine
 62
7
  6
CONTINUOUS
 10
136.8267903304
 20
107.1386799862
 11
137.0767320078
 21
106.9884738231
  0
LINE
  5
250
100
AcDbEntity
  8
_____1
100
AcDbLine
 62
7
  6
CONTINUOUS
 10
137.0767320078
 20
139.2631618575
 11
137.3266736853
 21
138.9630940408
  0
LINE
  5
251
100
AcDbEntity
  8
_____1
100
AcDbLine
 62
7
  6
CONTINUOUS
 10
146.4665120077
 20
80.1887315338
 11
146.1164903064
 21
81.6887261081
  0
LINE
  5
252
100
AcDbEntity
  8
_____1
100
AcDbLine
 62
7
  6
CONTINUOUS
 10
145.7664686051
 20
88.063530794
 11
146.1164903064
 21
86.5635362197
  0
LINE
  5
253
100
AcDbEntity
  8
_____1
100
AcDbLine
 62
7
  6
CONTINUOUS
 10
138.4266926737
 20
130.1887803494
 11
138.0766709724
 21
131.6887749237
  0
LINE
  5
254
100
AcDbEntity
  8
_____1
100
AcDbLine
 62
7
  6
CONTINUOUS
 10
137.7266492711
 20
135.6885307821
 11
138.0766709724
 21
134.1885362078
  0
LINE
  5
255
100
AcDbEntity
  8
_____1
100
AcDbLine
 62
7
  6
CONTINUOUS
 10
134.3266845367
 20
74.9656222686
 11
134.3266845367
 21
75.2656900854
  0
LINE
  5
256
100
AcDbEntity
  8
_____1
100
AcDbLine
 62
7
  6
CONTINUOUS
 10
134.3266845367
 20
104.1386908377
 11
134.3266845367
 21
104.4387586544
  0
LINE
  5
257
100
AcDbEntity
  8
_____1
100
AcDbLine
 62
7
  6
CONTINUOUS
 10
135.5767374336
 20
74.9656222686
 11
135.5767374336
 21
75.2656900854
  0
LINE
  5
258
100
AcDbEntity
  8
_____1
100
AcDbLine
 62
7
  6
CONTINUOUS
 10
137.3266736853
 20
75.2656900854
 11
137.3266736853
 21
74.9656222686
  0
LINE
  5
259
100
AcDbEntity
  8
_____1
100
AcDbLine
 62
7
  6
CONTINUOUS
 10
137.3266736853
 20
72.7156304072
 11
137.3266736853
 21
72.565424244
  0
LINE
  5
25A
100
AcDbEntity
  8
_____1
100
AcDbLine
 62
7
  6
CONTINUOUS
 10
137.3266736853
 20
103.6887613673
 11
137.3266736853
 21
104.8886881248
  0
LINE
  5
25B
100
AcDbEntity
  8
_____1
100
AcDbLine
 62
7
  6
CONTINUOUS
 10
138.0766709724
 20
66.7156521101
 11
138.0766709724
 21
140.1630207983
  0
LINE
  5
25C
100
AcDbEntity
  8
_____1
100
AcDbLine
 62
7
  6
CONTINUOUS
 10
142.3665038707
 20
98.0908257133
 11
142.3665038707
 21
97.1909667726
  0
LINE
  5
25D
100
AcDbEntity
  8
_____1
100
AcDbLine
 62
7
  6
CONTINUOUS
 10
143.3664428353
 20
97.3408284262
 11
143.3664428353
 21
97.640896243
  0
LINE
  5
25E
100
AcDbEntity
  8
_____1
100
AcDbLine
 62
7
  6
CONTINUOUS
 10
145.3664930192
 20
97.640896243
 11
145.3664930192
 21
97.3408284262
  0
LINE
  5
25F
100
AcDbEntity
  8
_____1
100
AcDbLine
 62
7
  6
CONTINUOUS
 10
145.3664930192
 20
95.0908365648
 11
145.3664930192
 21
94.9409749112
  0
LINE
  5
260
100
AcDbEntity
  8
_____1
100
AcDbLine
 62
7
  6
CONTINUOUS
 10
146.1164903064
 20
76.6885145208
 11
146.1164903064
 21
98.6909613469
  0
LINE
  5
261
100
AcDbEntity
  8
_____1
100
AcDbLine
 62
7
  6
CONTINUOUS
 10
327.4849201655
 20
583.8000242681
 11
327.2149969343
 21
583.4999564513
  0
LINE
  5
262
100
AcDbEntity
  8
_____1
100
AcDbLine
 62
7
  6
CONTINUOUS
 10
326.6749782169
 20
585.5999144044
 11
326.945073703
 21
585.8999822211
  0
LINE
  5
263
100
AcDbEntity
  8
_____1
100
AcDbLine
 62
7
  6
CONTINUOUS
 10
209.674884659
 20
13.3645589159
 11
207.5749267059
 21
13.3645589159
  0
LINE
  5
264
100
AcDbEntity
  8
_____1
100
AcDbLine
 62
7
  6
CONTINUOUS
 10
27.0000745918
 20
17.0001681815
 11
829.5001001615
 21
17.0001681815
  0
LINE
  5
265
100
AcDbEntity
  8
_____1
100
AcDbLine
 62
7
  6
CONTINUOUS
 10
143.3664428353
 20
93.2907741737
 11
143.8664984449
 21
93.1409125201
  0
LINE
  5
266
100
AcDbEntity
  8
_____1
100
AcDbLine
 62
7
  6
CONTINUOUS
 10
144.3663817998
 20
93.2907741737
 11
144.8664374095
 21
93.1409125201
  0
LINE
  5
267
100
AcDbEntity
  8
_____1
100
AcDbLine
 62
7
  6
CONTINUOUS
 10
135.3267957561
 20
106.0886148823
 11
134.8267401464
 21
106.2384765359
  0
LINE
  5
268
100
AcDbEntity
  8
_____1
100
AcDbLine
 62
7
  6
CONTINUOUS
 10
136.3267347207
 20
107.2885416398
 11
136.8267903304
 21
107.1386799862
  0
LINE
  5
269
100
AcDbEntity
  8
_____1
100
AcDbLine
 62
7
  6
CONTINUOUS
 10
143.3664428353
 20
92.0908474162
 11
142.8663872256
 21
92.2410535794
  0
LINE
  5
26A
100
AcDbEntity
  8
_____1
100
AcDbLine
 62
7
  6
CONTINUOUS
 10
144.3663817998
 20
98.2410318765
 11
144.8664374095
 21
98.0908257133
  0
LINE
  5
26B
100
AcDbEntity
  8
_____1
100
AcDbLine
 62
7
  6
CONTINUOUS
 10
135.3267957561
 20
108.4884683974
 11
134.8267401464
 21
108.6386745605
  0
LINE
  5
26C
100
AcDbEntity
  8
_____1
100
AcDbLine
 62
7
  6
CONTINUOUS
 10
136.3267347207
 20
109.6887396644
 11
136.8267903304
 21
109.5385335013
  0
LINE
  5
26D
100
AcDbEntity
  8
_____1
100
AcDbLine
 62
7
  6
CONTINUOUS
 10
134.8267401464
 20
138.5131645704
 11
134.5766262142
 21
138.663026224
  0
LINE
  5
26E
100
AcDbEntity
  8
_____1
100
AcDbLine
 62
7
  6
CONTINUOUS
 10
136.8267903304
 20
139.4130235112
 11
137.0767320078
 21
139.2631618575
  0
LINE
  5
26F
100
AcDbEntity
  8
_____1
100
AcDbLine
 62
7
  6
CONTINUOUS
 10
160.8000040288
 20
582.5000174868
 11
160.8000040288
 21
586.4999455999
  0
LINE
  5
270
100
AcDbEntity
  8
_____1
100
AcDbLine
 62
7
  6
CONTINUOUS
 10
169.1164645302
 20
134.1885362078
 11
169.1164645302
 21
131.6887749237
  0
LINE
  5
271
100
AcDbEntity
  8
_____1
100
AcDbLine
 62
7
  6
CONTINUOUS
 10
169.1164645302
 20
131.6887749237
 11
169.1164645302
 21
81.6887261081
  0
LINE
  5
272
100
AcDbEntity
  8
_____1
100
AcDbLine
 62
7
  6
CONTINUOUS
 10
169.1164645302
 20
81.6887261081
 11
169.1164645302
 21
78.738690844
  0
LINE
  5
273
100
AcDbEntity
  8
_____1
100
AcDbLine
 62
7
  6
CONTINUOUS
 10
138.0766709724
 20
134.1885362078
 11
138.4266926737
 21
135.6885307821
  0
LINE
  5
274
100
AcDbEntity
  8
_____1
100
AcDbLine
 62
7
  6
CONTINUOUS
 10
138.0766709724
 20
131.6887749237
 11
137.7266492711
 21
130.1887803494
  0
LINE
  5
275
100
AcDbEntity
  8
_____1
100
AcDbLine
 62
7
  6
CONTINUOUS
 10
260.9849310328
 20
587.1000812334
 11
260.0399413412
 21
584.3999876469
  0
LINE
  5
276
100
AcDbEntity
  8
_____1
100
AcDbLine
 62
7
  6
CONTINUOUS
 10
207.8191839758
 20
417.1958956205
 11
207.6159233422
 21
416.7390759592
  0
LINE
  5
277
100
AcDbEntity
  8
_____1
100
AcDbLine
 62
7
  6
CONTINUOUS
 10
207.8160833899
 20
412.2714761339
 11
207.9380397701
 21
412.5455334798
  0
LINE
  5
278
100
AcDbEntity
  8
_____1
100
AcDbLine
 62
7
  6
CONTINUOUS
 10
209.53673633
 20
411.8336044977
 11
209.4147799498
 21
411.5595471519
  0
LINE
  5
279
100
AcDbEntity
  8
_____1
100
AcDbLine
 62
7
  6
CONTINUOUS
 10
208.5293904101
 20
416.3322101824
 11
208.7328232985
 21
416.7890298437
  0
LINE
  5
27A
100
AcDbEntity
  8
_____1
100
AcDbLine
 62
7
  6
CONTINUOUS
 10
210.2078409305
 20
413.3410060273
 11
210.6960109608
 21
414.4372354107
  0
LINE
  5
27B
100
AcDbEntity
  8
_____1
100
AcDbLine
 62
7
  6
CONTINUOUS
 10
207.6502020423
 20
414.9722587396
 11
207.7723306772
 21
415.2463160854
  0
LINE
  5
27C
100
AcDbEntity
  8
_____1
100
AcDbLine
 62
7
  6
CONTINUOUS
 10
206.6740342365
 20
412.7797999728
 11
206.7961628715
 21
413.0538573186
  0
LINE
  5
27D
100
AcDbEntity
  8
_____1
100
AcDbLine
 62
7
  6
CONTINUOUS
 10
393.1749673496
 20
585.3000188424
 11
393.5799383239
 21
585.5999144044
  0
LINE
  5
27E
100
AcDbEntity
  8
_____1
100
AcDbLine
 62
7
  6
CONTINUOUS
 10
831.0400578435
 20
52.7998779165
 11
832.1200952781
 21
52.7998779165
  0
LINE
  5
27F
100
AcDbEntity
  8
_____1
100
AcDbLine
 62
7
  6
CONTINUOUS
 10
142.3665038707
 20
97.1909667726
 11
143.6163845127
 21
97.0407606094
  0
LINE
  5
280
100
AcDbEntity
  8
_____1
100
AcDbLine
 62
7
  6
CONTINUOUS
 10
136.5766763981
 20
103.8386230209
 11
137.3266736853
 21
103.6887613673
  0
LINE
  5
281
100
AcDbEntity
  8
_____1
100
AcDbLine
 62
7
  6
CONTINUOUS
 10
136.3267347207
 20
139.5628851648
 11
136.8267903304
 21
139.4130235112
  0
LINE
  5
282
100
AcDbEntity
  8
_____1
100
AcDbLine
 62
7
  6
CONTINUOUS
 10
135.3267957561
 20
138.3629584072
 11
134.8267401464
 21
138.5131645704
  0
LINE
  5
283
100
AcDbEntity
  8
_____1
100
AcDbLine
 62
7
  6
CONTINUOUS
 10
194.6199896432
 20
586.4999455999
 11
194.6199896432
 21
586.2000500379
  0
LINE
  5
284
100
AcDbEntity
  8
_____1
100
AcDbLine
 62
7
  6
CONTINUOUS
 10
194.7550373862
 20
584.7000554636
 11
194.7550373862
 21
584.3999876469
  0
LINE
  5
285
100
AcDbEntity
  8
_____1
100
AcDbLine
 62
7
  6
CONTINUOUS
 10
208.9748412564
 20
10.7659233914
 11
208.9748412564
 21
11.4745795327
  0
LINE
  5
286
100
AcDbEntity
  8
_____1
100
AcDbLine
 62
7
  6
CONTINUOUS
 10
209.149852107
 20
12.5377359995
 11
209.149852107
 21
13.6008924662
  0
LINE
  5
287
100
AcDbEntity
  8
_____1
100
AcDbLine
 62
7
  6
CONTINUOUS
 10
209.999929418
 20
0.0
 11
209.999929418
 21
13.9998345234
  0
LINE
  5
288
100
AcDbEntity
  8
_____1
100
AcDbLine
 62
7
  6
CONTINUOUS
 10
138.0766709724
 20
81.6887261081
 11
138.4266926737
 21
83.1887206823
  0
LINE
  5
289
100
AcDbEntity
  8
_____1
100
AcDbLine
 62
7
  6
CONTINUOUS
 10
138.0766709724
 20
78.738690844
 11
137.7266492711
 21
77.2386962698
  0
LINE
  5
28A
100
AcDbEntity
  8
_____1
100
AcDbLine
 62
7
  6
CONTINUOUS
 10
146.1164903064
 20
86.5635362197
 11
146.4665120077
 21
88.063530794
  0
LINE
  5
28B
100
AcDbEntity
  8
_____1
100
AcDbLine
 62
7
  6
CONTINUOUS
 10
146.1164903064
 20
81.6887261081
 11
145.7664686051
 21
80.1887315338
  0
LINE
  5
28C
100
AcDbEntity
  8
_____1
100
AcDbLine
 62
7
  6
CONTINUOUS
 10
327.6199679085
 20
584.0999198301
 11
327.4849201655
 21
583.8000242681
  0
LINE
  5
28D
100
AcDbEntity
  8
_____1
100
AcDbLine
 62
7
  6
CONTINUOUS
 10
393.3100150926
 20
586.8000134167
 11
393.5799383239
 21
587.1000812334
  0
LINE
  5
28E
100
AcDbEntity
  8
_____1
100
AcDbLine
 62
7
  6
CONTINUOUS
 10
393.85003381
 20
583.8000242681
 11
393.5799383239
 21
583.4999564513
  0
LINE
  5
28F
100
AcDbEntity
  8
_____1
100
AcDbLine
 62
7
  6
CONTINUOUS
 10
285.713826426
 20
455.6255912489
 11
286.0330145227
 21
455.8507282389
  0
LINE
  5
290
100
AcDbEntity
  8
_____1
100
AcDbLine
 62
7
  6
CONTINUOUS
 10
286.0974378082
 20
453.1935260911
 11
286.416625905
 21
453.4186630811
  0
LINE
  5
291
100
AcDbEntity
  8
_____1
100
AcDbLine
 62
7
  6
CONTINUOUS
 10
288.6116684934
 20
454.8492389813
 11
288.2924803967
 21
454.6241019914
  0
LINE
  5
292
100
AcDbEntity
  8
_____1
100
AcDbLine
 62
7
  6
CONTINUOUS
 10
287.9517604532
 20
452.3861679642
 11
287.6325723565
 21
452.1610309742
  0
LINE
  5
293
100
AcDbEntity
  8
_____1
100
AcDbLine
 62
7
  6
CONTINUOUS
 10
285.8002983226
 20
457.8800617345
 11
285.4942015888
 21
457.7033283361
  0
LINE
  5
294
100
AcDbEntity
  8
_____1
100
AcDbLine
 62
7
  6
CONTINUOUS
 10
286.024401784
 20
456.7848658797
 11
286.3306707726
 21
456.9615992781
  0
LINE
  5
295
100
AcDbEntity
  8
_____1
100
AcDbLine
 62
7
  6
CONTINUOUS
 10
207.5749267059
 20
11.1204237168
 11
209.674884659
 21
11.710913083
  0
LINE
  5
296
100
AcDbEntity
  8
_____1
100
AcDbLine
 62
7
  6
CONTINUOUS
 10
134.3266845367
 20
67.9155788676
 11
137.3266736853
 21
67.9155788676
  0
LINE
  5
297
100
AcDbEntity
  8
_____1
100
AcDbLine
 62
7
  6
CONTINUOUS
 10
134.3266845367
 20
70.3154323826
 11
137.3266736853
 21
70.3154323826
  0
LINE
  5
298
100
AcDbEntity
  8
_____1
100
AcDbLine
 62
7
  6
CONTINUOUS
 10
137.3266736853
 20
72.565424244
 11
137.0767320078
 21
72.565424244
  0
LINE
  5
299
100
AcDbEntity
  8
_____1
100
AcDbLine
 62
7
  6
CONTINUOUS
 10
136.5766763981
 20
74.3654866351
 11
136.3267347207
 21
74.3654866351
  0
LINE
  5
29A
100
AcDbEntity
  8
_____1
100
AcDbLine
 62
7
  6
CONTINUOUS
 10
135.0766818239
 20
74.5156927982
 11
134.8267401464
 21
74.5156927982
  0
LINE
  5
29B
100
AcDbEntity
  8
_____1
100
AcDbLine
 62
7
  6
CONTINUOUS
 10
134.8267401464
 20
75.7156195557
 11
135.0766818239
 21
75.7156195557
  0
LINE
  5
29C
100
AcDbEntity
  8
_____1
100
AcDbLine
 62
7
  6
CONTINUOUS
 10
136.3267347207
 20
75.8654812093
 11
136.5766763981
 21
75.8654812093
  0
LINE
  5
29D
100
AcDbEntity
  8
_____1
100
AcDbLine
 62
7
  6
CONTINUOUS
 10
168.1165255656
 20
78.738690844
 11
137.0767320078
 21
78.738690844
  0
LINE
  5
29E
100
AcDbEntity
  8
_____1
100
AcDbLine
 62
7
  6
CONTINUOUS
 10
169.1164645302
 20
78.738690844
 11
469.1165851692
 21
78.738690844
  0
LINE
  5
29F
100
AcDbEntity
  8
_____1
100
AcDbLine
 62
7
  6
CONTINUOUS
 10
168.1165255656
 20
81.6887261081
 11
137.0767320078
 21
81.6887261081
  0
LINE
  5
2A0
100
AcDbEntity
  8
_____1
100
AcDbLine
 62
7
  6
CONTINUOUS
 10
169.1164645302
 20
81.6887261081
 11
469.1165851692
 21
81.6887261081
  0
LINE
  5
2A1
100
AcDbEntity
  8
_____1
100
AcDbLine
 62
7
  6
CONTINUOUS
 10
153.1164075681
 20
86.5635362197
 11
145.116379087
 21
86.5635362197
  0
LINE
  5
2A2
100
AcDbEntity
  8
_____1
100
AcDbLine
 62
7
  6
CONTINUOUS
 10
154.1173800613
 20
86.5635362197
 11
484.116530912
 21
86.5635362197
  0
LINE
  5
2A3
100
AcDbEntity
  8
_____1
100
AcDbLine
 62
7
  6
CONTINUOUS
 10
833.3000404818
 20
88.9999077468
 11
829.5001001615
 21
88.9999077468
  0
LINE
  5
2A4
100
AcDbEntity
  8
_____1
100
AcDbLine
 62
7
  6
CONTINUOUS
 10
142.3665038707
 20
90.2907850252
 11
145.3664930192
 21
90.2907850252
  0
LINE
  5
2A5
100
AcDbEntity
  8
_____1
100
AcDbLine
 62
7
  6
CONTINUOUS
 10
143.3664428353
 20
93.2907741737
 11
144.3663817998
 21
93.2907741737
  0
LINE
  5
2A6
100
AcDbEntity
  8
_____1
100
AcDbLine
 62
7
  6
CONTINUOUS
 10
145.3664930192
 20
94.9409749112
 11
145.116379087
 21
94.9409749112
  0
LINE
  5
2A7
100
AcDbEntity
  8
_____1
100
AcDbLine
 62
7
  6
CONTINUOUS
 10
241.5904214891
 20
273.6842420106
 11
241.609541769
 21
273.3311197233
  0
LINE
  5
2A8
100
AcDbEntity
  8
_____1
100
AcDbLine
 62
7
  6
CONTINUOUS
 10
242.668736376
 20
273.3886528179
 11
242.649616096
 21
273.7414305956
  0
LINE
  5
2A9
100
AcDbEntity
  8
_____1
100
AcDbLine
 62
7
  6
CONTINUOUS
 10
226.0545911436
 20
333.3260795608
 11
226.0545911436
 21
332.4260483652
  0
LINE
  5
2AA
100
AcDbEntity
  8
_____1
100
AcDbLine
 62
7
  6
CONTINUOUS
 10
226.0545911436
 20
330.1760565038
 11
226.0545911436
 21
330.4761243206
  0
LINE
  5
2AB
100
AcDbEntity
  8
_____1
100
AcDbLine
 62
7
  6
CONTINUOUS
 10
227.0545301082
 20
332.5760822736
 11
227.0545301082
 21
332.8761500904
  0
LINE
  5
2AC
100
AcDbEntity
  8
_____1
100
AcDbLine
 62
7
  6
CONTINUOUS
 10
227.6000609783
 20
582.5000174868
 11
227.6000609783
 21
586.4999455999
  0
LINE
  5
2AD
100
AcDbEntity
  8
_____1
100
AcDbLine
 62
7
  6
CONTINUOUS
 10
229.0545802921
 20
332.8761500904
 11
229.0545802921
 21
332.5760822736
  0
LINE
  5
2AE
100
AcDbEntity
  8
_____1
100
AcDbLine
 62
7
  6
CONTINUOUS
 10
229.0545802921
 20
329.7261270335
 11
229.0545802921
 21
330.926053791
  0
LINE
  5
2AF
100
AcDbEntity
  8
_____1
100
AcDbLine
 62
7
  6
CONTINUOUS
 10
229.8045775793
 20
301.4761717996
 11
229.8045775793
 21
363.9760605644
  0
LINE
  5
2B0
100
AcDbEntity
  8
_____1
100
AcDbLine
 62
7
  6
CONTINUOUS
 10
237.2926648712
 20
277.2047850869
 11
237.2373710887
 21
276.9184976521
  0
LINE
  5
2B1
100
AcDbEntity
  8
_____1
100
AcDbLine
 62
7
  6
CONTINUOUS
 10
238.5258368002
 20
272.739252319
 11
238.6364243653
 21
273.3118271886
  0
LINE
  5
2B2
100
AcDbEntity
  8
_____1
100
AcDbLine
 62
7
  6
CONTINUOUS
 10
239.6945854435
 20
274.0418429219
 11
239.7498792261
 21
274.3281303568
  0
LINE
  5
2B3
100
AcDbEntity
  8
_____1
100
AcDbLine
 62
7
  6
CONTINUOUS
 10
236.9627969785
 20
274.141750691
 11
236.907503196
 21
273.8558077657
  0
LINE
  5
2B4
100
AcDbEntity
  8
_____1
100
AcDbLine
 62
7
  6
CONTINUOUS
 10
240.0304822534
 20
273.0686034474
 11
239.9198946883
 21
272.4963730873
  0
LINE
  5
2B5
100
AcDbEntity
  8
_____1
100
AcDbLine
 62
7
  6
CONTINUOUS
 10
229.8045775793
 20
363.9760605644
 11
229.454555878
 21
362.4760659901
  0
LINE
  5
2B6
100
AcDbEntity
  8
_____1
100
AcDbLine
 62
7
  6
CONTINUOUS
 10
229.8045775793
 20
301.4761717996
 11
230.1545992806
 21
302.9761663739
  0
LINE
  5
2B7
100
AcDbEntity
  8
_____1
100
AcDbLine
 62
7
  6
CONTINUOUS
 10
226.0545911436
 20
335.1261419518
 11
226.304532821
 21
335.4260375138
  0
LINE
  5
2B8
100
AcDbEntity
  8
_____1
100
AcDbLine
 62
7
  6
CONTINUOUS
 10
289.8381224861
 20
420.5586533237
 11
290.0243298971
 21
420.7253959452
  0
LINE
  5
2B9
100
AcDbEntity
  8
_____1
100
AcDbLine
 62
7
  6
CONTINUOUS
 10
293.8018770967
 20
419.879280494
 11
293.42929002
 21
419.5456229962
  0
LINE
  5
2BA
100
AcDbEntity
  8
_____1
100
AcDbLine
 62
7
  6
CONTINUOUS
 10
294.947026836
 20
420.0990775859
 11
294.574612014
 21
419.765592343
  0
LINE
  5
2BB
100
AcDbEntity
  8
_____1
100
AcDbLine
 62
7
  6
CONTINUOUS
 10
288.6375067095
 20
421.8996567413
 11
290.8726846604
 21
423.9007404539
  0
LINE
  5
2BC
100
AcDbEntity
  8
_____1
100
AcDbLine
 62
7
  6
CONTINUOUS
 10
295.2415825
 20
419.0205904443
 11
295.6141695767
 21
419.3540756873
  0
LINE
  5
2BD
100
AcDbEntity
  8
_____1
100
AcDbLine
 62
7
  6
CONTINUOUS
 10
207.7723306772
 20
415.2463160854
 11
208.1226968881
 21
415.4187431145
  0
LINE
  5
2BE
100
AcDbEntity
  8
_____1
100
AcDbLine
 62
7
  6
CONTINUOUS
 10
206.7961628715
 20
413.0538573186
 11
207.1465290823
 21
413.2262843476
  0
LINE
  5
2BF
100
AcDbEntity
  8
_____1
100
AcDbLine
 62
7
  6
CONTINUOUS
 10
207.9380397701
 20
412.5455334798
 11
208.2884059809
 21
412.717788254
  0
LINE
  5
2C0
100
AcDbEntity
  8
_____1
100
AcDbLine
 62
7
  6
CONTINUOUS
 10
209.4147799498
 20
411.5595471519
 11
209.0642414842
 21
411.3872923776
  0
LINE
  5
2C1
100
AcDbEntity
  8
_____1
100
AcDbLine
 62
7
  6
CONTINUOUS
 10
208.1993502626
 20
416.2056029233
 11
208.5293904101
 21
416.3322101824
  0
LINE
  5
2C2
100
AcDbEntity
  8
_____1
100
AcDbLine
 62
7
  6
CONTINUOUS
 10
208.1493963781
 20
417.3225028796
 11
207.8191839758
 21
417.1958956205
  0
LINE
  5
2C3
100
AcDbEntity
  8
_____1
100
AcDbLine
 62
7
  6
CONTINUOUS
 10
438.4772839616
 20
493.6957911635
 11
438.9678655587
 21
493.8506482055
  0
LINE
  5
2C4
100
AcDbEntity
  8
_____1
100
AcDbLine
 62
7
  6
CONTINUOUS
 10
436.8270832241
 20
491.9529173575
 11
437.3180093308
 21
492.1077743995
  0
LINE
  5
2C5
100
AcDbEntity
  8
_____1
100
AcDbLine
 62
7
  6
CONTINUOUS
 10
286.0330145227
 20
455.8507282389
 11
286.3132730404
 21
455.9308267089
  0
LINE
  5
2C6
100
AcDbEntity
  8
_____1
100
AcDbLine
 62
7
  6
CONTINUOUS
 10
288.2924803967
 20
454.6241019914
 11
288.012221879
 21
454.5440035213
  0
LINE
  5
2C7
100
AcDbEntity
  8
_____1
100
AcDbLine
 62
7
  6
CONTINUOUS
 10
286.416625905
 20
453.4186630811
 11
286.6968844227
 21
453.4987615511
  0
LINE
  5
2C8
100
AcDbEntity
  8
_____1
100
AcDbLine
 62
7
  6
CONTINUOUS
 10
287.6325723565
 20
452.1610309742
 11
287.3523138388
 21
452.0809325042
  0
LINE
  5
2C9
100
AcDbEntity
  8
_____1
100
AcDbLine
 62
7
  6
CONTINUOUS
 10
134.8267401464
 20
104.8886881248
 11
135.3267957561
 21
104.8886881248
  0
LINE
  5
2CA
100
AcDbEntity
  8
_____1
100
AcDbLine
 62
7
  6
CONTINUOUS
 10
136.3267347207
 20
106.0886148823
 11
135.3267957561
 21
106.0886148823
  0
LINE
  5
2CB
100
AcDbEntity
  8
_____1
100
AcDbLine
 62
7
  6
CONTINUOUS
 10
135.3267957561
 20
107.2885416398
 11
136.3267347207
 21
107.2885416398
  0
LINE
  5
2CC
100
AcDbEntity
  8
_____1
100
AcDbLine
 62
7
  6
CONTINUOUS
 10
136.3267347207
 20
108.4884683974
 11
135.3267957561
 21
108.4884683974
  0
LINE
  5
2CD
100
AcDbEntity
  8
_____1
100
AcDbLine
 62
7
  6
CONTINUOUS
 10
135.3267957561
 20
109.6887396644
 11
136.3267347207
 21
109.6887396644
  0
LINE
  5
2CE
100
AcDbEntity
  8
_____1
100
AcDbLine
 62
7
  6
CONTINUOUS
 10
532.0484889078
 20
118.7958495797
 11
530.8485621503
 21
118.7958495797
  0
LINE
  5
2CF
100
AcDbEntity
  8
_____1
100
AcDbLine
 62
7
  6
CONTINUOUS
 10
514.7985513036
 20
118.7958495797
 11
514.4984834868
 21
118.7958495797
  0
LINE
  5
2D0
100
AcDbEntity
  8
_____1
100
AcDbLine
 62
7
  6
CONTINUOUS
 10
507.4484400858
 20
118.7958495797
 11
506.8486489618
 21
118.7958495797
  0
LINE
  5
2D1
100
AcDbEntity
  8
_____1
100
AcDbLine
 62
7
  6
CONTINUOUS
 10
503.2485241797
 20
118.7958495797
 11
502.0485974222
 21
118.7958495797
  0
LINE
  5
2D2
100
AcDbEntity
  8
_____1
100
AcDbLine
 62
7
  6
CONTINUOUS
 10
500.3983966848
 20
118.7958495797
 11
500.098328868
 21
118.7958495797
  0
LINE
  5
2D3
100
AcDbEntity
  8
_____1
100
AcDbLine
 62
7
  6
CONTINUOUS
 10
494.6984862045
 20
118.7958495797
 11
495.7485513084
 21
118.7958495797
  0
LINE
  5
2D4
100
AcDbEntity
  8
_____1
100
AcDbLine
 62
7
  6
CONTINUOUS
 10
523.6483125861
 20
118.7958495797
 11
524.8485838532
 21
118.7958495797
  0
LINE
  5
2D5
100
AcDbEntity
  8
_____1
100
AcDbLine
 62
7
  6
CONTINUOUS
 10
497.3984075362
 20
119.795960799
 11
498.2986109865
 21
119.795960799
  0
LINE
  5
2D6
100
AcDbEntity
  8
_____1
100
AcDbLine
 62
7
  6
CONTINUOUS
 10
509.3983641305
 20
119.795960799
 11
510.2985675808
 21
119.795960799
  0
LINE
  5
2D7
100
AcDbEntity
  8
_____1
100
AcDbLine
 62
7
  6
CONTINUOUS
 10
526.1983722643
 20
119.795960799
 11
527.0985757146
 21
119.795960799
  0
LINE
  5
2D8
100
AcDbEntity
  8
_____1
100
AcDbLine
 62
7
  6
CONTINUOUS
 10
521.9984563582
 20
120.295844154
 11
521.2484590711
 21
120.295844154
  0
LINE
  5
2D9
100
AcDbEntity
  8
_____1
100
AcDbLine
 62
7
  6
CONTINUOUS
 10
489.2483451468
 20
120.295844154
 11
494.2485567341
 21
120.295844154
  0
LINE
  5
2DA
100
AcDbEntity
  8
_____1
100
AcDbLine
 62
7
  6
CONTINUOUS
 10
502.0485974222
 20
120.295844154
 11
502.7985947094
 21
120.295844154
  0
LINE
  5
2DB
100
AcDbEntity
  8
_____1
100
AcDbLine
 62
7
  6
CONTINUOUS
 10
530.8485621503
 20
120.295844154
 11
531.5985594374
 21
120.295844154
  0
LINE
  5
2DC
100
AcDbEntity
  8
_____1
100
AcDbLine
 62
7
  6
CONTINUOUS
 10
494.6984862045
 20
120.5459580862
 11
495.7485513084
 21
120.5459580862
  0
LINE
  5
2DD
100
AcDbEntity
  8
_____1
100
AcDbLine
 62
7
  6
CONTINUOUS
 10
831.714952049
 20
121.0000216711
 11
831.444856563
 21
121.0000216711
  0
LINE
  5
2DE
100
AcDbEntity
  8
_____1
100
AcDbLine
 62
7
  6
CONTINUOUS
 10
500.3983966848
 20
121.7958387282
 11
500.098328868
 21
121.7958387282
  0
LINE
  5
2DF
100
AcDbEntity
  8
_____1
100
AcDbLine
 62
7
  6
CONTINUOUS
 10
495.7485513084
 20
121.7958387282
 11
494.6984862045
 21
121.7958387282
  0
LINE
  5
2E0
100
AcDbEntity
  8
_____1
100
AcDbLine
 62
7
  6
CONTINUOUS
 10
502.0485974222
 20
121.7958387282
 11
503.2485241797
 21
121.7958387282
  0
LINE
  5
2E1
100
AcDbEntity
  8
_____1
100
AcDbLine
 62
7
  6
CONTINUOUS
 10
506.8486489618
 20
121.7958387282
 11
507.4484400858
 21
121.7958387282
  0
LINE
  5
2E2
100
AcDbEntity
  8
_____1
100
AcDbLine
 62
7
  6
CONTINUOUS
 10
511.4984943383
 20
121.7958387282
 11
512.9984889125
 21
121.7958387282
  0
LINE
  5
2E3
100
AcDbEntity
  8
_____1
100
AcDbLine
 62
7
  6
CONTINUOUS
 10
521.2484590711
 20
121.7958387282
 11
521.9984563582
 21
121.7958387282
  0
LINE
  5
2E4
100
AcDbEntity
  8
_____1
100
AcDbLine
 62
7
  6
CONTINUOUS
 10
530.8485621503
 20
121.7958387282
 11
532.0484889078
 21
121.7958387282
  0
LINE
  5
2E5
100
AcDbEntity
  8
_____1
100
AcDbLine
 62
7
  6
CONTINUOUS
 10
831.579904306
 20
122.8000840622
 11
832.1200952781
 21
122.8000840622
  0
LINE
  5
2E6
100
AcDbEntity
  8
_____1
100
AcDbLine
 62
7
  6
CONTINUOUS
 10
831.444856563
 20
124.6001464532
 11
831.714952049
 21
124.6001464532
  0
LINE
  5
2E7
100
AcDbEntity
  8
_____1
100
AcDbLine
 62
7
  6
CONTINUOUS
 10
230.4346855435
 20
275.9111517322
 11
229.633873098
 21
277.2271782076
  0
LINE
  5
2E8
100
AcDbEntity
  8
_____1
100
AcDbLine
 62
7
  6
CONTINUOUS
 10
226.2385592425
 20
280.3484347172
 11
226.9902790774
 21
279.0041584589
  0
LINE
  5
2E9
100
AcDbEntity
  8
_____1
100
AcDbLine
 62
7
  6
CONTINUOUS
 10
206.780487687
 20
412.4041123101
 11
206.6740342365
 21
412.7797999728
  0
LINE
  5
2EA
100
AcDbEntity
  8
_____1
100
AcDbLine
 62
7
  6
CONTINUOUS
 10
207.7566554928
 20
414.5965710769
 11
207.6502020423
 21
414.9722587396
  0
LINE
  5
2EB
100
AcDbEntity
  8
_____1
100
AcDbLine
 62
7
  6
CONTINUOUS
 10
207.8317585743
 20
412.9212211424
 11
207.9380397701
 21
412.5455334798
  0
LINE
  5
2EC
100
AcDbEntity
  8
_____1
100
AcDbLine
 62
7
  6
CONTINUOUS
 10
229.454555878
 20
302.9761663739
 11
229.8045775793
 21
301.4761717996
  0
LINE
  5
2ED
100
AcDbEntity
  8
_____1
100
AcDbLine
 62
7
  6
CONTINUOUS
 10
238.5821641114
 20
272.3530571151
 11
238.5258368002
 21
272.739252319
  0
LINE
  5
2EE
100
AcDbEntity
  8
_____1
100
AcDbLine
 62
7
  6
CONTINUOUS
 10
239.7509127547
 20
273.655647718
 11
239.6945854435
 21
274.0418429219
  0
LINE
  5
2EF
100
AcDbEntity
  8
_____1
100
AcDbLine
 62
7
  6
CONTINUOUS
 10
237.23633756
 20
277.5913248004
 11
237.2926648712
 21
277.2047850869
  0
LINE
  5
2F0
100
AcDbEntity
  8
_____1
100
AcDbLine
 62
7
  6
CONTINUOUS
 10
239.9741549422
 20
273.4551431608
 11
240.0304822534
 21
273.0686034474
  0
LINE
  5
2F1
100
AcDbEntity
  8
_____1
100
AcDbLine
 62
7
  6
CONTINUOUS
 10
240.809073833
 20
274.3853189418
 11
240.8652288894
 21
273.9991237379
  0
LINE
  5
2F2
100
AcDbEntity
  8
_____1
100
AcDbLine
 62
7
  6
CONTINUOUS
 10
260.9849310328
 20
583.4999564513
 11
260.9849310328
 21
587.1000812334
  0
LINE
  5
2F3
100
AcDbEntity
  8
_____1
100
AcDbLine
 62
7
  6
CONTINUOUS
 10
240.8652288894
 20
273.9991237379
 11
240.8099351069
 21
273.7128363031
  0
LINE
  5
2F4
100
AcDbEntity
  8
_____1
100
AcDbLine
 62
7
  6
CONTINUOUS
 10
327.7550156516
 20
584.7000554636
 11
327.6199679085
 21
584.0999198301
  0
LINE
  5
2F5
100
AcDbEntity
  8
_____1
100
AcDbLine
 62
7
  6
CONTINUOUS
 10
288.0292751016
 20
452.6759004945
 11
287.9517604532
 21
452.3861679642
  0
LINE
  5
2F6
100
AcDbEntity
  8
_____1
100
AcDbLine
 62
7
  6
CONTINUOUS
 10
285.4942015888
 20
457.7033283361
 11
285.3648382533
 21
457.2203259491
  0
LINE
  5
2F7
100
AcDbEntity
  8
_____1
100
AcDbLine
 62
7
  6
CONTINUOUS
 10
285.2480495164
 20
453.8870238123
 11
285.0151610616
 21
453.0176539666
  0
LINE
  5
2F8
100
AcDbEntity
  8
_____1
100
AcDbLine
 62
7
  6
CONTINUOUS
 10
286.3306707726
 20
456.9615992781
 11
286.4600341081
 21
457.4446016652
  0
LINE
  5
2F9
100
AcDbEntity
  8
_____1
100
AcDbLine
 62
7
  6
CONTINUOUS
 10
286.0197509051
 20
452.9037935608
 11
286.0974378082
 21
453.1935260911
  0
LINE
  5
2FA
100
AcDbEntity
  8
_____1
100
AcDbLine
 62
7
  6
CONTINUOUS
 10
290.0243298971
 20
420.7253959452
 11
289.93820251
 21
420.4468599752
  0
LINE
  5
2FB
100
AcDbEntity
  8
_____1
100
AcDbLine
 62
7
  6
CONTINUOUS
 10
293.8880044838
 20
420.1576442092
 11
293.8018770967
 21
419.879280494
  0
LINE
  5
2FC
100
AcDbEntity
  8
_____1
100
AcDbLine
 62
7
  6
CONTINUOUS
 10
393.1749673496
 20
586.4999455999
 11
393.3100150926
 21
586.8000134167
  0
LINE
  5
2FD
100
AcDbEntity
  8
_____1
100
AcDbLine
 62
7
  6
CONTINUOUS
 10
319.1164387223
 20
445.2260537624
 11
289.1944063947
 21
383.3292289623
  0
LINE
  5
2FE
100
AcDbEntity
  8
_____1
100
AcDbLine
 62
7
  6
CONTINUOUS
 10
319.1164387223
 20
445.2260537624
 11
284.7414482253
 21
385.6868800577
  0
LINE
  5
2FF
100
AcDbEntity
  8
_____1
100
AcDbLine
 62
7
  6
CONTINUOUS
 10
229.0545802921
 20
335.1261419518
 11
228.8046386147
 21
334.826074135
  0
LINE
  5
300
100
AcDbEntity
  8
_____1
100
AcDbLine
 62
7
  6
CONTINUOUS
 10
229.0545802921
 20
332.5760822736
 11
228.8046386147
 21
332.2760144569
  0
LINE
  5
301
100
AcDbEntity
  8
_____1
100
AcDbLine
 62
7
  6
CONTINUOUS
 10
226.0545911436
 20
330.4761243206
 11
226.304532821
 21
330.7760198826
  0
LINE
  5
302
100
AcDbEntity
  8
_____1
100
AcDbLine
 62
7
  6
CONTINUOUS
 10
227.0545301082
 20
332.8761500904
 11
227.3046440404
 21
333.1760456524
  0
LINE
  5
303
100
AcDbEntity
  8
_____1
100
AcDbLine
 62
7
  6
CONTINUOUS
 10
349.8497910367
 20
454.9622381133
 11
350.0523626512
 21
455.1718721735
  0
LINE
  5
304
100
AcDbEntity
  8
_____1
100
AcDbLine
 62
7
  6
CONTINUOUS
 10
351.5315143978
 20
454.4811305287
 11
351.3289427833
 21
454.2714964685
  0
LINE
  5
305
100
AcDbEntity
  8
_____1
100
AcDbLine
 62
7
  6
CONTINUOUS
 10
353.0799125636
 20
452.5666909676
 11
352.8771686943
 21
452.3570569073
  0
LINE
  5
306
100
AcDbEntity
  8
_____1
100
AcDbLine
 62
7
  6
CONTINUOUS
 10
350.5096990769
 20
452.4991670961
 11
350.7124429462
 21
452.7086289016
  0
LINE
  5
307
100
AcDbEntity
  8
_____1
100
AcDbLine
 62
7
  6
CONTINUOUS
 10
334.6908541372
 20
421.2313082172
 11
333.5944524991
 21
420.14937598
  0
LINE
  5
308
100
AcDbEntity
  8
_____1
100
AcDbLine
 62
7
  6
CONTINUOUS
 10
432.5510307078
 20
483.7994098725
 11
433.8363958334
 21
484.6481091453
  0
LINE
  5
309
100
AcDbEntity
  8
_____1
100
AcDbLine
 62
7
  6
CONTINUOUS
 10
350.7124429462
 20
452.7086289016
 11
351.1565157542
 21
452.983030757
  0
LINE
  5
30A
100
AcDbEntity
  8
_____1
100
AcDbLine
 62
7
  6
CONTINUOUS
 10
352.8771686943
 20
452.3570569073
 11
352.4330958863
 21
452.0826550519
  0
LINE
  5
30B
100
AcDbEntity
  8
_____1
100
AcDbLine
 62
7
  6
CONTINUOUS
 10
351.3289427833
 20
454.2714964685
 11
350.8848699752
 21
453.9972668678
  0
LINE
  5
30C
100
AcDbEntity
  8
_____1
100
AcDbLine
 62
7
  6
CONTINUOUS
 10
291.7976927981
 20
419.4942910735
 11
291.1388182866
 21
419.1056843028
  0
LINE
  5
30D
100
AcDbEntity
  8
_____1
100
AcDbLine
 62
7
  6
CONTINUOUS
 10
333.5944524991
 20
420.14937598
 11
335.0563787682
 21
420.6344454244
  0
LINE
  5
30E
100
AcDbEntity
  8
_____1
100
AcDbLine
 62
7
  6
CONTINUOUS
 10
290.8726846604
 20
423.9007404539
 11
288.4960855399
 21
423.1822657905
  0
LINE
  5
30F
100
AcDbEntity
  8
_____1
100
AcDbLine
 62
7
  6
CONTINUOUS
 10
168.1165255656
 20
131.6887749237
 11
137.0767320078
 21
131.6887749237
  0
LINE
  5
310
100
AcDbEntity
  8
_____1
100
AcDbLine
 62
7
  6
CONTINUOUS
 10
169.1164645302
 20
131.6887749237
 11
469.1165851692
 21
131.6887749237
  0
LINE
  5
311
100
AcDbEntity
  8
_____1
100
AcDbLine
 62
7
  6
CONTINUOUS
 10
469.1165851692
 20
134.1885362078
 11
169.1164645302
 21
134.1885362078
  0
LINE
  5
312
100
AcDbEntity
  8
_____1
100
AcDbLine
 62
7
  6
CONTINUOUS
 10
168.1165255656
 20
134.1885362078
 11
137.0767320078
 21
134.1885362078
  0
LINE
  5
313
100
AcDbEntity
  8
_____1
100
AcDbLine
 62
7
  6
CONTINUOUS
 10
134.3266845367
 20
136.5628960162
 11
137.3266736853
 21
136.5628960162
  0
LINE
  5
314
100
AcDbEntity
  8
_____1
100
AcDbLine
 62
7
  6
CONTINUOUS
 10
136.3267347207
 20
138.3629584072
 11
135.3267957561
 21
138.3629584072
  0
LINE
  5
315
100
AcDbEntity
  8
_____1
100
AcDbLine
 62
7
  6
CONTINUOUS
 10
135.3267957561
 20
139.5628851648
 11
136.3267347207
 21
139.5628851648
  0
LINE
  5
316
100
AcDbEntity
  8
_____1
100
AcDbLine
 62
7
  6
CONTINUOUS
 10
232.4869289241
 20
285.9746201542
 11
231.7520900571
 21
287.3281981704
  0
LINE
  5
317
100
AcDbEntity
  8
_____1
100
AcDbLine
 62
7
  6
CONTINUOUS
 10
128.833135276
 20
586.7426525768
 11
128.968183019
 21
586.4425847601
  0
LINE
  5
318
100
AcDbEntity
  8
_____1
100
AcDbLine
 62
7
  6
CONTINUOUS
 10
208.7328232985
 20
416.7890298437
 11
208.6060437847
 21
417.1190699912
  0
LINE
  5
319
100
AcDbEntity
  8
_____1
100
AcDbLine
 62
7
  6
CONTINUOUS
 10
207.6159233422
 20
416.7390759592
 11
207.7425306013
 21
416.4090358117
  0
LINE
  5
31A
100
AcDbEntity
  8
_____1
100
AcDbLine
 62
7
  6
CONTINUOUS
 10
209.4304551343
 20
412.2094644152
 11
209.53673633
 21
411.8336044977
  0
LINE
  5
31B
100
AcDbEntity
  8
_____1
100
AcDbLine
 62
7
  6
CONTINUOUS
 10
209.0363362108
 20
415.0120495924
 11
209.1426174065
 21
414.636189675
  0
LINE
  5
31C
100
AcDbEntity
  8
_____1
100
AcDbLine
 62
7
  6
CONTINUOUS
 10
209.1426174065
 20
414.636189675
 11
209.2488986022
 21
414.2605020123
  0
LINE
  5
31D
100
AcDbEntity
  8
_____1
100
AcDbLine
 62
7
  6
CONTINUOUS
 10
230.1545992806
 20
362.4760659901
 11
229.8045775793
 21
363.9760605644
  0
LINE
  5
31E
100
AcDbEntity
  8
_____1
100
AcDbLine
 62
7
  6
CONTINUOUS
 10
293.8742241019
 20
420.5479735277
 11
293.8880044838
 21
420.1576442092
  0
LINE
  5
31F
100
AcDbEntity
  8
_____1
100
AcDbLine
 62
7
  6
CONTINUOUS
 10
284.1165079042
 20
300.4760605803
 11
284.1165079042
 21
214.0179442824
  0
LINE
  5
320
100
AcDbEntity
  8
_____1
100
AcDbLine
 62
7
  6
CONTINUOUS
 10
284.1165079042
 20
301.4761717996
 11
284.1165079042
 21
343.2879176659
  0
LINE
  5
321
100
AcDbEntity
  8
_____1
100
AcDbLine
 62
7
  6
CONTINUOUS
 10
294.5999334658
 20
586.4999455999
 11
294.5999334658
 21
582.5000174868
  0
LINE
  5
322
100
AcDbEntity
  8
_____1
100
AcDbLine
 62
7
  6
CONTINUOUS
 10
297.9914577163
 20
369.7374659991
 11
297.9914577163
 21
326.4760239527
  0
LINE
  5
323
100
AcDbEntity
  8
_____1
100
AcDbLine
 62
7
  6
CONTINUOUS
 10
302.1164427956
 20
445.2260537624
 11
302.1164427956
 21
482.7260903741
  0
LINE
  5
324
100
AcDbEntity
  8
_____1
100
AcDbLine
 62
7
  6
CONTINUOUS
 10
303.741494336
 20
372.3235269251
 11
303.741494336
 21
323.9760904138
  0
LINE
  5
325
100
AcDbEntity
  8
_____1
100
AcDbLine
 62
7
  6
CONTINUOUS
 10
304.1164929795
 20
363.9760605644
 11
304.1164929795
 21
445.2260537624
  0
LINE
  5
326
100
AcDbEntity
  8
_____1
100
AcDbLine
 62
7
  6
CONTINUOUS
 10
295.6141695767
 20
419.3540756873
 11
295.6336343662
 21
419.7070257197
  0
LINE
  5
327
100
AcDbEntity
  8
_____1
100
AcDbLine
 62
7
  6
CONTINUOUS
 10
294.574612014
 20
419.765592343
 11
294.5549749698
 21
419.4126423105
  0
LINE
  5
328
100
AcDbEntity
  8
_____1
100
AcDbLine
 62
7
  6
CONTINUOUS
 10
302.1164427956
 20
482.7260903741
 11
304.7900091469
 21
515.1571857436
  0
LINE
  5
329
100
AcDbEntity
  8
_____1
100
AcDbLine
 62
7
  6
CONTINUOUS
 10
326.81002596
 20
587.1000812334
 11
326.6749782169
 21
585.5999144044
  0
LINE
  5
32A
100
AcDbEntity
  8
_____1
100
AcDbLine
 62
7
  6
CONTINUOUS
 10
393.9849092982
 20
584.0999198301
 11
393.85003381
 21
583.8000242681
  0
LINE
  5
32B
100
AcDbEntity
  8
_____1
100
AcDbLine
 62
7
  6
CONTINUOUS
 10
349.6859767463
 20
454.6077377878
 11
349.8497910367
 21
454.9622381133
  0
LINE
  5
32C
100
AcDbEntity
  8
_____1
100
AcDbLine
 62
7
  6
CONTINUOUS
 10
350.3458847865
 20
452.1446667706
 11
350.5096990769
 21
452.4991670961
  0
LINE
  5
32D
100
AcDbEntity
  8
_____1
100
AcDbLine
 62
7
  6
CONTINUOUS
 10
353.243726854
 20
452.9210190382
 11
353.0799125636
 21
452.5666909676
  0
LINE
  5
32E
100
AcDbEntity
  8
_____1
100
AcDbLine
 62
7
  6
CONTINUOUS
 10
351.6955009429
 20
454.8356308542
 11
351.5315143978
 21
454.4811305287
  0
LINE
  5
32F
100
AcDbEntity
  8
_____1
100
AcDbLine
 62
7
  6
CONTINUOUS
 10
144.1164401224
 20
92.6909830497
 11
143.8664984449
 21
92.2410535794
  0
LINE
  5
330
100
AcDbEntity
  8
_____1
100
AcDbLine
 62
7
  6
CONTINUOUS
 10
354.2960312699
 20
450.9254474784
 11
354.4727646683
 21
451.2317164671
  0
LINE
  5
331
100
AcDbEntity
  8
_____1
100
AcDbLine
 62
7
  6
CONTINUOUS
 10
353.554302212
 20
451.7619166622
 11
353.3775688136
 21
451.4558199284
  0
LINE
  5
332
100
AcDbEntity
  8
_____1
100
AcDbLine
 62
7
  6
CONTINUOUS
 10
134.3266845367
 20
138.9630940408
 11
134.5766262142
 21
139.2631618575
  0
LINE
  5
333
100
AcDbEntity
  8
_____1
100
AcDbLine
 62
7
  6
CONTINUOUS
 10
137.3266736853
 20
138.9630940408
 11
137.0767320078
 21
138.663026224
  0
LINE
  5
334
100
AcDbEntity
  8
_____1
100
AcDbLine
 62
7
  6
CONTINUOUS
 10
239.9198946883
 20
272.4963730873
 11
239.7528075572
 21
272.3099934215
  0
LINE
  5
335
100
AcDbEntity
  8
_____1
100
AcDbLine
 62
7
  6
CONTINUOUS
 10
242.3347343687
 20
273.016237996
 11
242.668736376
 21
273.3886528179
  0
LINE
  5
336
100
AcDbEntity
  8
_____1
100
AcDbLine
 62
7
  6
CONTINUOUS
 10
236.7958821023
 20
273.9557155348
 11
236.9627969785
 21
274.141750691
  0
LINE
  5
337
100
AcDbEntity
  8
_____1
100
AcDbLine
 62
7
  6
CONTINUOUS
 10
238.6364243653
 20
273.3118271886
 11
238.8033392415
 21
273.4978623448
  0
LINE
  5
338
100
AcDbEntity
  8
_____1
100
AcDbLine
 62
7
  6
CONTINUOUS
 10
239.7498792261
 20
274.3281303568
 11
239.9167941023
 21
274.514165513
  0
LINE
  5
339
100
AcDbEntity
  8
_____1
100
AcDbLine
 62
7
  6
CONTINUOUS
 10
240.8099351069
 20
273.7128363031
 11
240.6430202306
 21
273.5268011469
  0
LINE
  5
33A
100
AcDbEntity
  8
_____1
100
AcDbLine
 62
7
  6
CONTINUOUS
 10
237.2373710887
 20
276.9184976521
 11
236.9033690814
 21
276.5464273397
  0
LINE
  5
33B
100
AcDbEntity
  8
_____1
100
AcDbLine
 62
7
  6
CONTINUOUS
 10
241.9244234964
 20
274.056312323
 11
241.5904214891
 21
273.6842420106
  0
LINE
  5
33C
100
AcDbEntity
  8
_____1
100
AcDbLine
 62
7
  6
CONTINUOUS
 10
526.9848875636
 20
585.8999822211
 11
526.7151365871
 21
585.5999144044
  0
LINE
  5
33D
100
AcDbEntity
  8
_____1
100
AcDbLine
 62
7
  6
CONTINUOUS
 10
526.174945615
 20
586.8000134167
 11
526.445041101
 21
587.1000812334
  0
LINE
  5
33E
100
AcDbEntity
  8
_____1
100
AcDbLine
 62
7
  6
CONTINUOUS
 10
526.174945615
 20
585.3000188424
 11
526.445041101
 21
585.5999144044
  0
LINE
  5
33F
100
AcDbEntity
  8
_____1
100
AcDbLine
 62
7
  6
CONTINUOUS
 10
433.8570664063
 20
490.6336180414
 11
434.3724526909
 21
491.1782876376
  0
LINE
  5
340
100
AcDbEntity
  8
_____1
100
AcDbLine
 62
7
  6
CONTINUOUS
 10
435.4617918833
 20
490.1471705589
 11
434.9464055987
 21
489.6025009627
  0
LINE
  5
341
100
AcDbEntity
  8
_____1
100
AcDbLine
 62
7
  6
CONTINUOUS
 10
432.5510307078
 20
483.7994098725
 11
442.7674613693
 21
494.5913437349
  0
LINE
  5
342
100
AcDbEntity
  8
_____1
100
AcDbLine
 62
7
  6
CONTINUOUS
 10
319.1164387223
 20
363.9760605644
 11
212.6809027246
 21
258.2808755865
  0
LINE
  5
343
100
AcDbEntity
  8
_____1
100
AcDbLine
 62
7
  6
CONTINUOUS
 10
345.1704900938
 20
416.9356186566
 11
345.0628308599
 21
416.8310600086
  0
LINE
  5
344
100
AcDbEntity
  8
_____1
100
AcDbLine
 62
7
  6
CONTINUOUS
 10
340.9447359716
 20
410.4052679096
 11
339.8398938495
 21
409.3321206659
  0
LINE
  5
345
100
AcDbEntity
  8
_____1
100
AcDbLine
 62
7
  6
CONTINUOUS
 10
346.0188448571
 20
421.590114912
 11
346.3776515519
 21
421.9384140655
  0
LINE
  5
346
100
AcDbEntity
  8
_____1
100
AcDbLine
 62
7
  6
CONTINUOUS
 10
344.6962727003
 20
420.6554605068
 11
344.9115911681
 21
420.864405548
  0
LINE
  5
347
100
AcDbEntity
  8
_____1
100
AcDbLine
 62
7
  6
CONTINUOUS
 10
345.6812254995
 20
422.6560274551
 11
345.3224188047
 21
422.3079005563
  0
LINE
  5
348
100
AcDbEntity
  8
_____1
100
AcDbLine
 62
7
  6
CONTINUOUS
 10
342.49502894
 20
415.3848089239
 11
343.4639620452
 21
416.3249754819
  0
LINE
  5
349
100
AcDbEntity
  8
_____1
100
AcDbLine
 62
7
  6
CONTINUOUS
 10
346.4624009008
 20
418.1889443942
 11
347.3236747721
 21
419.0245523041
  0
LINE
  5
34A
100
AcDbEntity
  8
_____1
100
AcDbLine
 62
7
  6
CONTINUOUS
 10
431.0324326179
 20
471.6936888469
 11
430.4846624358
 21
471.1814031483
  0
LINE
  5
34B
100
AcDbEntity
  8
_____1
100
AcDbLine
 62
7
  6
CONTINUOUS
 10
428.6856335734
 20
466.419247659
 11
438.5954507367
 21
475.684487457
  0
LINE
  5
34C
100
AcDbEntity
  8
_____1
100
AcDbLine
 62
7
  6
CONTINUOUS
 10
429.4600910385
 20
472.2771157673
 11
430.0082057302
 21
472.789401466
  0
LINE
  5
34D
100
AcDbEntity
  8
_____1
100
AcDbLine
 62
7
  6
CONTINUOUS
 10
207.6446898895
 20
263.6066486971
 11
319.1164387223
 21
363.9760605644
  0
LINE
  5
34E
100
AcDbEntity
  8
_____1
100
AcDbLine
 62
7
  6
CONTINUOUS
 10
335.9398735054
 20
406.9646510484
 11
337.1554754474
 21
407.9106742687
  0
LINE
  5
34F
100
AcDbEntity
  8
_____1
100
AcDbLine
 62
7
  6
CONTINUOUS
 10
593.4848766962
 20
585.3000188424
 11
593.0800779767
 21
584.9999510256
  0
LINE
  5
350
100
AcDbEntity
  8
_____1
100
AcDbLine
 62
7
  6
CONTINUOUS
 10
227.3046440404
 20
333.1760456524
 11
227.5545857179
 21
333.3260795608
  0
LINE
  5
351
100
AcDbEntity
  8
_____1
100
AcDbLine
 62
7
  6
CONTINUOUS
 10
226.304532821
 20
335.4260375138
 11
226.5546467533
 21
335.5760714222
  0
LINE
  5
352
100
AcDbEntity
  8
_____1
100
AcDbLine
 62
7
  6
CONTINUOUS
 10
228.8046386147
 20
334.826074135
 11
228.5545246824
 21
334.6760402267
  0
LINE
  5
353
100
AcDbEntity
  8
_____1
100
AcDbLine
 62
7
  6
CONTINUOUS
 10
226.304532821
 20
330.7760198826
 11
226.5546467533
 21
330.926053791
  0
LINE
  5
354
100
AcDbEntity
  8
_____1
100
AcDbLine
 62
7
  6
CONTINUOUS
 10
228.8046386147
 20
332.2760144569
 11
228.5545246824
 21
332.1261528033
  0
LINE
  5
355
100
AcDbEntity
  8
_____1
100
AcDbLine
 62
7
  6
CONTINUOUS
 10
428.6856335734
 20
466.419247659
 11
430.0202635644
 21
467.1880207165
  0
LINE
  5
356
100
AcDbEntity
  8
_____1
100
AcDbLine
 62
7
  6
CONTINUOUS
 10
339.8398938495
 20
409.3321206659
 11
341.3056097237
 21
409.8054767856
  0
LINE
  5
357
100
AcDbEntity
  8
_____1
100
AcDbLine
 62
7
  6
CONTINUOUS
 10
829.5001001615
 20
159.0001138925
 11
833.3000404818
 21
159.0001138925
  0
LINE
  5
358
100
AcDbEntity
  8
_____1
100
AcDbLine
 62
7
  6
CONTINUOUS
 10
229.1343342526
 20
276.7369411201
 11
230.4346855435
 21
275.9111517322
  0
LINE
  5
359
100
AcDbEntity
  8
_____1
100
AcDbLine
 62
7
  6
CONTINUOUS
 10
227.5075601645
 20
279.4754475213
 11
226.2385592425
 21
280.3484347172
  0
LINE
  5
35A
100
AcDbEntity
  8
_____1
100
AcDbLine
 62
7
  6
CONTINUOUS
 10
231.2289523076
 20
286.8631102798
 11
232.4869289241
 21
285.9746201542
  0
LINE
  5
35B
100
AcDbEntity
  8
_____1
100
AcDbLine
 62
7
  6
CONTINUOUS
 10
318.9664048139
 20
217.5181612954
 11
318.6665092519
 21
217.7679307181
  0
LINE
  5
35C
100
AcDbEntity
  8
_____1
100
AcDbLine
 62
7
  6
CONTINUOUS
 10
316.8664468609
 20
218.7680419375
 11
317.1665146777
 21
218.5179280053
  0
LINE
  5
35D
100
AcDbEntity
  8
_____1
100
AcDbLine
 62
7
  6
CONTINUOUS
 10
321.5164644921
 20
215.7680527889
 11
321.2163966753
 21
216.0181667212
  0
LINE
  5
35E
100
AcDbEntity
  8
_____1
100
AcDbLine
 62
7
  6
CONTINUOUS
 10
318.9664048139
 20
215.7680527889
 11
318.6665092519
 21
216.0181667212
  0
LINE
  5
35F
100
AcDbEntity
  8
_____1
100
AcDbLine
 62
7
  6
CONTINUOUS
 10
319.2664726307
 20
217.5181612954
 11
319.5663681927
 21
217.2680473632
  0
LINE
  5
360
100
AcDbEntity
  8
_____1
100
AcDbLine
 62
7
  6
CONTINUOUS
 10
319.2664726307
 20
218.7680419375
 11
319.5663681927
 21
218.5179280053
  0
LINE
  5
361
100
AcDbEntity
  8
_____1
100
AcDbLine
 62
7
  6
CONTINUOUS
 10
321.5164644921
 20
218.7680419375
 11
321.8163600541
 21
218.5179280053
  0
LINE
  5
362
100
AcDbEntity
  8
_____1
100
AcDbLine
 62
7
  6
CONTINUOUS
 10
236.907503196
 20
273.8558077657
 11
236.7958821023
 21
273.9557155348
  0
LINE
  5
363
100
AcDbEntity
  8
_____1
100
AcDbLine
 62
7
  6
CONTINUOUS
 10
237.0130953726
 20
277.7914848481
 11
237.23633756
 21
277.5913248004
  0
LINE
  5
364
100
AcDbEntity
  8
_____1
100
AcDbLine
 62
7
  6
CONTINUOUS
 10
241.609541769
 20
273.3311197233
 11
241.9817843362
 21
272.9972899708
  0
LINE
  5
365
100
AcDbEntity
  8
_____1
100
AcDbLine
 62
7
  6
CONTINUOUS
 10
234.6745645572
 20
275.8591307904
 11
235.5677055618
 21
275.0578015805
  0
LINE
  5
366
100
AcDbEntity
  8
_____1
100
AcDbLine
 62
7
  6
CONTINUOUS
 10
240.5856593908
 20
274.5858234991
 11
240.809073833
 21
274.3853189418
  0
LINE
  5
367
100
AcDbEntity
  8
_____1
100
AcDbLine
 62
7
  6
CONTINUOUS
 10
242.649616096
 20
273.7414305956
 11
242.2773735288
 21
274.0756048577
  0
LINE
  5
368
100
AcDbEntity
  8
_____1
100
AcDbLine
 62
7
  6
CONTINUOUS
 10
238.8054062988
 20
272.1525525578
 11
238.5821641114
 21
272.3530571151
  0
LINE
  5
369
100
AcDbEntity
  8
_____1
100
AcDbLine
 62
7
  6
CONTINUOUS
 10
239.7509127547
 20
273.655647718
 11
239.9741549422
 21
273.4551431608
  0
LINE
  5
36A
100
AcDbEntity
  8
_____1
100
AcDbLine
 62
7
  6
CONTINUOUS
 10
226.304532821
 20
329.8761609418
 11
226.0545911436
 21
330.1760565038
  0
LINE
  5
36B
100
AcDbEntity
  8
_____1
100
AcDbLine
 62
7
  6
CONTINUOUS
 10
227.3046440404
 20
330.7760198826
 11
227.5545857179
 21
330.4761243206
  0
LINE
  5
36C
100
AcDbEntity
  8
_____1
100
AcDbLine
 62
7
  6
CONTINUOUS
 10
227.3046440404
 20
332.2760144569
 11
227.0545301082
 21
332.5760822736
  0
LINE
  5
36D
100
AcDbEntity
  8
_____1
100
AcDbLine
 62
7
  6
CONTINUOUS
 10
228.8046386147
 20
333.1760456524
 11
229.0545802921
 21
332.8761500904
  0
LINE
  5
36E
100
AcDbEntity
  8
_____1
100
AcDbLine
 62
7
  6
CONTINUOUS
 10
228.8046386147
 20
335.4260375138
 11
229.0545802921
 21
335.1261419518
  0
LINE
  5
36F
100
AcDbEntity
  8
_____1
100
AcDbLine
 62
7
  6
CONTINUOUS
 10
227.5545857179
 20
330.4761243206
 11
227.8045273953
 21
330.1760565038
  0
LINE
  5
370
100
AcDbEntity
  8
_____1
100
AcDbLine
 62
7
  6
CONTINUOUS
 10
226.304532821
 20
334.826074135
 11
226.0545911436
 21
335.1261419518
  0
LINE
  5
371
100
AcDbEntity
  8
_____1
100
AcDbLine
 62
7
  6
CONTINUOUS
 10
318.6665092519
 20
216.0181667212
 11
318.5164753435
 21
216.2679361438
  0
LINE
  5
372
100
AcDbEntity
  8
_____1
100
AcDbLine
 62
7
  6
CONTINUOUS
 10
319.7164021011
 20
217.017933431
 11
319.8664360094
 21
216.7681640083
  0
LINE
  5
373
100
AcDbEntity
  8
_____1
100
AcDbLine
 62
7
  6
CONTINUOUS
 10
319.5663681927
 20
218.5179280053
 11
319.7164021011
 21
218.2681585826
  0
LINE
  5
374
100
AcDbEntity
  8
_____1
100
AcDbLine
 62
7
  6
CONTINUOUS
 10
321.2163966753
 20
216.0181667212
 11
321.066362767
 21
216.2679361438
  0
LINE
  5
375
100
AcDbEntity
  8
_____1
100
AcDbLine
 62
7
  6
CONTINUOUS
 10
321.8163600541
 20
218.5179280053
 11
321.9663939625
 21
218.2681585826
  0
LINE
  5
376
100
AcDbEntity
  8
_____1
100
AcDbLine
 62
7
  6
CONTINUOUS
 10
317.1665146777
 20
218.5179280053
 11
317.3163763313
 21
218.2681585826
  0
LINE
  5
377
100
AcDbEntity
  8
_____1
100
AcDbLine
 62
7
  6
CONTINUOUS
 10
318.5164753435
 20
216.2679361438
 11
318.3664414352
 21
216.5180500761
  0
LINE
  5
378
100
AcDbEntity
  8
_____1
100
AcDbLine
 62
7
  6
CONTINUOUS
 10
318.6665092519
 20
217.7679307181
 11
318.5164753435
 21
218.0180446504
  0
LINE
  5
379
100
AcDbEntity
  8
_____1
100
AcDbLine
 62
7
  6
CONTINUOUS
 10
319.5663681927
 20
217.2680473632
 11
319.7164021011
 21
217.017933431
  0
LINE
  5
37A
100
AcDbEntity
  8
_____1
100
AcDbLine
 62
7
  6
CONTINUOUS
 10
321.9663939625
 20
218.2681585826
 11
322.1164278709
 21
217.7679307181
  0
LINE
  5
37B
100
AcDbEntity
  8
_____1
100
AcDbLine
 62
7
  6
CONTINUOUS
 10
321.066362767
 20
216.2679361438
 11
320.9165011133
 21
216.7681640083
  0
LINE
  5
37C
100
AcDbEntity
  8
_____1
100
AcDbLine
 62
7
  6
CONTINUOUS
 10
317.3163763313
 20
218.2681585826
 11
317.3163763313
 21
217.7679307181
  0
LINE
  5
37D
100
AcDbEntity
  8
_____1
100
AcDbLine
 62
7
  6
CONTINUOUS
 10
318.3664414352
 20
216.5180500761
 11
318.3664414352
 21
216.7681640083
  0
LINE
  5
37E
100
AcDbEntity
  8
_____1
100
AcDbLine
 62
7
  6
CONTINUOUS
 10
318.5164753435
 20
218.0180446504
 11
318.5164753435
 21
218.2681585826
  0
LINE
  5
37F
100
AcDbEntity
  8
_____1
100
AcDbLine
 62
7
  6
CONTINUOUS
 10
319.1164387223
 20
362.9761215998
 11
319.1164387223
 21
360.9602239766
  0
LINE
  5
380
100
AcDbEntity
  8
_____1
100
AcDbLine
 62
7
  6
CONTINUOUS
 10
319.1164387223
 20
360.2935980002
 11
319.1164387223
 21
359.6269720238
  0
LINE
  5
381
100
AcDbEntity
  8
_____1
100
AcDbLine
 62
7
  6
CONTINUOUS
 10
319.1164387223
 20
358.9603460474
 11
319.1164387223
 21
356.9444484242
  0
LINE
  5
382
100
AcDbEntity
  8
_____1
100
AcDbLine
 62
7
  6
CONTINUOUS
 10
319.1164387223
 20
356.2778224478
 11
319.1164387223
 21
355.6111964714
  0
LINE
  5
383
100
AcDbEntity
  8
_____1
100
AcDbLine
 62
7
  6
CONTINUOUS
 10
319.1164387223
 20
354.944570495
 11
319.1164387223
 21
352.9286728718
  0
LINE
  5
384
100
AcDbEntity
  8
_____1
100
AcDbLine
 62
7
  6
CONTINUOUS
 10
319.1164387223
 20
352.2620468954
 11
319.1164387223
 21
351.595420919
  0
LINE
  5
385
100
AcDbEntity
  8
_____1
100
AcDbLine
 62
7
  6
CONTINUOUS
 10
319.1164387223
 20
350.9287949426
 11
319.1164387223
 21
348.9128973195
  0
LINE
  5
386
100
AcDbEntity
  8
_____1
100
AcDbLine
 62
7
  6
CONTINUOUS
 10
319.1164387223
 20
348.2460990883
 11
319.1164387223
 21
347.5794731119
  0
LINE
  5
387
100
AcDbEntity
  8
_____1
100
AcDbLine
 62
7
  6
CONTINUOUS
 10
319.1164387223
 20
346.9128471355
 11
319.1164387223
 21
344.8971217671
  0
LINE
  5
388
100
AcDbEntity
  8
_____1
100
AcDbLine
 62
7
  6
CONTINUOUS
 10
319.1164387223
 20
344.2303235359
 11
319.1164387223
 21
343.5636975595
  0
LINE
  5
389
100
AcDbEntity
  8
_____1
100
AcDbLine
 62
7
  6
CONTINUOUS
 10
319.1164387223
 20
342.8970715831
 11
319.1164387223
 21
340.8811739599
  0
LINE
  5
38A
100
AcDbEntity
  8
_____1
100
AcDbLine
 62
7
  6
CONTINUOUS
 10
319.1164387223
 20
340.2145479835
 11
319.1164387223
 21
339.5479220071
  0
LINE
  5
38B
100
AcDbEntity
  8
_____1
100
AcDbLine
 62
7
  6
CONTINUOUS
 10
319.1164387223
 20
338.8812960307
 11
319.1164387223
 21
336.8653984075
  0
LINE
  5
38C
100
AcDbEntity
  8
_____1
100
AcDbLine
 62
7
  6
CONTINUOUS
 10
319.1164387223
 20
336.1987724311
 11
319.1164387223
 21
335.5321464547
  0
LINE
  5
38D
100
AcDbEntity
  8
_____1
100
AcDbLine
 62
7
  6
CONTINUOUS
 10
319.1164387223
 20
334.8653482236
 11
319.1164387223
 21
332.8496228552
  0
LINE
  5
38E
100
AcDbEntity
  8
_____1
100
AcDbLine
 62
7
  6
CONTINUOUS
 10
319.1164387223
 20
332.182824624
 11
319.1164387223
 21
331.5161986476
  0
LINE
  5
38F
100
AcDbEntity
  8
_____1
100
AcDbLine
 62
7
  6
CONTINUOUS
 10
319.1164387223
 20
330.8495726712
 11
319.1164387223
 21
328.833675048
  0
LINE
  5
390
100
AcDbEntity
  8
_____1
100
AcDbLine
 62
7
  6
CONTINUOUS
 10
319.1164387223
 20
328.1670490716
 11
319.1164387223
 21
327.5004230952
  0
LINE
  5
391
100
AcDbEntity
  8
_____1
100
AcDbLine
 62
7
  6
CONTINUOUS
 10
319.1164387223
 20
326.8337971188
 11
319.1164387223
 21
324.8178994956
  0
LINE
  5
392
100
AcDbEntity
  8
_____1
100
AcDbLine
 62
7
  6
CONTINUOUS
 10
319.1164387223
 20
324.1512735192
 11
319.1164387223
 21
323.4846475428
  0
LINE
  5
393
100
AcDbEntity
  8
_____1
100
AcDbLine
 62
7
  6
CONTINUOUS
 10
319.1164387223
 20
322.8178493117
 11
319.1164387223
 21
320.8021239432
  0
LINE
  5
394
100
AcDbEntity
  8
_____1
100
AcDbLine
 62
7
  6
CONTINUOUS
 10
319.1164387223
 20
320.1354979668
 11
319.1164387223
 21
319.4688719904
  0
LINE
  5
395
100
AcDbEntity
  8
_____1
100
AcDbLine
 62
7
  6
CONTINUOUS
 10
319.1164387223
 20
318.8020737593
 11
319.1164387223
 21
316.7861761361
  0
LINE
  5
396
100
AcDbEntity
  8
_____1
100
AcDbLine
 62
7
  6
CONTINUOUS
 10
319.1164387223
 20
316.1195501597
 11
319.1164387223
 21
315.4529241833
  0
LINE
  5
397
100
AcDbEntity
  8
_____1
100
AcDbLine
 62
7
  6
CONTINUOUS
 10
319.1164387223
 20
314.7862982069
 11
319.1164387223
 21
312.7704005837
  0
LINE
  5
398
100
AcDbEntity
  8
_____1
100
AcDbLine
 62
7
  6
CONTINUOUS
 10
319.1164387223
 20
312.1037746073
 11
319.1164387223
 21
311.4371486309
  0
LINE
  5
399
100
AcDbEntity
  8
_____1
100
AcDbLine
 62
7
  6
CONTINUOUS
 10
319.1164387223
 20
310.7705226545
 11
319.1164387223
 21
308.7546250313
  0
LINE
  5
39A
100
AcDbEntity
  8
_____1
100
AcDbLine
 62
7
  6
CONTINUOUS
 10
319.1164387223
 20
308.0879990549
 11
319.1164387223
 21
307.4213730785
  0
LINE
  5
39B
100
AcDbEntity
  8
_____1
100
AcDbLine
 62
7
  6
CONTINUOUS
 10
319.1164387223
 20
306.7545748474
 11
319.1164387223
 21
304.7386772242
  0
LINE
  5
39C
100
AcDbEntity
  8
_____1
100
AcDbLine
 62
7
  6
CONTINUOUS
 10
319.1164387223
 20
304.0720512478
 11
319.1164387223
 21
303.4054252714
  0
LINE
  5
39D
100
AcDbEntity
  8
_____1
100
AcDbLine
 62
7
  6
CONTINUOUS
 10
319.1164387223
 20
302.738799295
 11
319.1164387223
 21
300.7229016718
  0
LINE
  5
39E
100
AcDbEntity
  8
_____1
100
AcDbLine
 62
7
  6
CONTINUOUS
 10
319.1164387223
 20
300.0562756954
 11
319.1164387223
 21
299.389649719
  0
LINE
  5
39F
100
AcDbEntity
  8
_____1
100
AcDbLine
 62
7
  6
CONTINUOUS
 10
319.1164387223
 20
298.7230237426
 11
319.1164387223
 21
296.7071261194
  0
LINE
  5
3A0
100
AcDbEntity
  8
_____1
100
AcDbLine
 62
7
  6
CONTINUOUS
 10
319.1164387223
 20
296.040500143
 11
319.1164387223
 21
295.3738741666
  0
LINE
  5
3A1
100
AcDbEntity
  8
_____1
100
AcDbLine
 62
7
  6
CONTINUOUS
 10
319.1164387223
 20
294.7072481902
 11
319.1164387223
 21
292.6911783122
  0
LINE
  5
3A2
100
AcDbEntity
  8
_____1
100
AcDbLine
 62
7
  6
CONTINUOUS
 10
319.1164387223
 20
292.0245523358
 11
319.1164387223
 21
291.3579263595
  0
LINE
  5
3A3
100
AcDbEntity
  8
_____1
100
AcDbLine
 62
7
  6
CONTINUOUS
 10
319.1164387223
 20
290.6913003831
 11
319.1164387223
 21
288.6755750146
  0
LINE
  5
3A4
100
AcDbEntity
  8
_____1
100
AcDbLine
 62
7
  6
CONTINUOUS
 10
319.1164387223
 20
288.0089490382
 11
319.1164387223
 21
287.3423230618
  0
LINE
  5
3A5
100
AcDbEntity
  8
_____1
100
AcDbLine
 62
7
  6
CONTINUOUS
 10
319.1164387223
 20
286.6756970854
 11
319.1164387223
 21
284.6596272075
  0
LINE
  5
3A6
100
AcDbEntity
  8
_____1
100
AcDbLine
 62
7
  6
CONTINUOUS
 10
319.1164387223
 20
283.9930012311
 11
319.1164387223
 21
283.3263752547
  0
LINE
  5
3A7
100
AcDbEntity
  8
_____1
100
AcDbLine
 62
7
  6
CONTINUOUS
 10
319.1164387223
 20
282.6597492783
 11
319.1164387223
 21
280.6436794003
  0
LINE
  5
3A8
100
AcDbEntity
  8
_____1
100
AcDbLine
 62
7
  6
CONTINUOUS
 10
319.1164387223
 20
279.9770534239
 11
319.1164387223
 21
279.3104274475
  0
LINE
  5
3A9
100
AcDbEntity
  8
_____1
100
AcDbLine
 62
7
  6
CONTINUOUS
 10
319.1164387223
 20
278.6438014711
 11
319.1164387223
 21
276.6280761027
  0
LINE
  5
3AA
100
AcDbEntity
  8
_____1
100
AcDbLine
 62
7
  6
CONTINUOUS
 10
319.1164387223
 20
275.9614501263
 11
319.1164387223
 21
275.2948241499
  0
LINE
  5
3AB
100
AcDbEntity
  8
_____1
100
AcDbLine
 62
7
  6
CONTINUOUS
 10
319.1164387223
 20
274.6281981735
 11
319.1164387223
 21
272.6121282956
  0
LINE
  5
3AC
100
AcDbEntity
  8
_____1
100
AcDbLine
 62
7
  6
CONTINUOUS
 10
319.1164387223
 20
271.9455023192
 11
319.1164387223
 21
271.2788763428
  0
LINE
  5
3AD
100
AcDbEntity
  8
_____1
100
AcDbLine
 62
7
  6
CONTINUOUS
 10
319.1164387223
 20
270.6122503664
 11
319.1164387223
 21
268.5961804884
  0
LINE
  5
3AE
100
AcDbEntity
  8
_____1
100
AcDbLine
 62
7
  6
CONTINUOUS
 10
319.1164387223
 20
267.929554512
 11
319.1164387223
 21
267.2629285356
  0
LINE
  5
3AF
100
AcDbEntity
  8
_____1
100
AcDbLine
 62
7
  6
CONTINUOUS
 10
319.1164387223
 20
266.5963025592
 11
319.1164387223
 21
264.5805771908
  0
LINE
  5
3B0
100
AcDbEntity
  8
_____1
100
AcDbLine
 62
7
  6
CONTINUOUS
 10
319.1164387223
 20
263.9136067049
 11
319.1164387223
 21
263.2469807285
  0
LINE
  5
3B1
100
AcDbEntity
  8
_____1
100
AcDbLine
 62
7
  6
CONTINUOUS
 10
319.1164387223
 20
262.5803547521
 11
319.1164387223
 21
260.5646293836
  0
LINE
  5
3B2
100
AcDbEntity
  8
_____1
100
AcDbLine
 62
7
  6
CONTINUOUS
 10
319.1164387223
 20
259.8980034072
 11
319.1164387223
 21
259.2313774309
  0
LINE
  5
3B3
100
AcDbEntity
  8
_____1
100
AcDbLine
 62
7
  6
CONTINUOUS
 10
319.1164387223
 20
258.5647514545
 11
319.1164387223
 21
256.5486815765
  0
LINE
  5
3B4
100
AcDbEntity
  8
_____1
100
AcDbLine
 62
7
  6
CONTINUOUS
 10
319.1164387223
 20
255.8820556001
 11
319.1164387223
 21
255.2154296237
  0
LINE
  5
3B5
100
AcDbEntity
  8
_____1
100
AcDbLine
 62
7
  6
CONTINUOUS
 10
319.1164387223
 20
254.5488036473
 11
319.1164387223
 21
252.5327337693
  0
LINE
  5
3B6
100
AcDbEntity
  8
_____1
100
AcDbLine
 62
7
  6
CONTINUOUS
 10
319.1164387223
 20
251.8661077929
 11
319.1164387223
 21
251.1994818165
  0
LINE
  5
3B7
100
AcDbEntity
  8
_____1
100
AcDbLine
 62
7
  6
CONTINUOUS
 10
319.1164387223
 20
250.5328558401
 11
319.1164387223
 21
248.5167859622
  0
LINE
  5
3B8
100
AcDbEntity
  8
_____1
100
AcDbLine
 62
7
  6
CONTINUOUS
 10
319.1164387223
 20
247.8501599858
 11
319.1164387223
 21
247.1835340094
  0
LINE
  5
3B9
100
AcDbEntity
  8
_____1
100
AcDbLine
 62
7
  6
CONTINUOUS
 10
319.1164387223
 20
246.516908033
 11
319.1164387223
 21
244.5011826646
  0
LINE
  5
3BA
100
AcDbEntity
  8
_____1
100
AcDbLine
 62
7
  6
CONTINUOUS
 10
319.1164387223
 20
243.8342121786
 11
319.1164387223
 21
243.1675862022
  0
LINE
  5
3BB
100
AcDbEntity
  8
_____1
100
AcDbLine
 62
7
  6
CONTINUOUS
 10
319.1164387223
 20
242.5009602258
 11
319.1164387223
 21
240.4852348574
  0
LINE
  5
3BC
100
AcDbEntity
  8
_____1
100
AcDbLine
 62
7
  6
CONTINUOUS
 10
319.1164387223
 20
239.818608881
 11
319.1164387223
 21
239.1516383951
  0
LINE
  5
3BD
100
AcDbEntity
  8
_____1
100
AcDbLine
 62
7
  6
CONTINUOUS
 10
319.1164387223
 20
238.4850124187
 11
319.1164387223
 21
236.4692870503
  0
LINE
  5
3BE
100
AcDbEntity
  8
_____1
100
AcDbLine
 62
7
  6
CONTINUOUS
 10
319.1164387223
 20
235.8026610739
 11
319.1164387223
 21
235.1360350975
  0
LINE
  5
3BF
100
AcDbEntity
  8
_____1
100
AcDbLine
 62
7
  6
CONTINUOUS
 10
319.1164387223
 20
234.4694091211
 11
319.1164387223
 21
232.4519612049
  0
LINE
  5
3C0
100
AcDbEntity
  8
_____1
100
AcDbLine
 62
7
  6
CONTINUOUS
 10
319.1164387223
 20
34.1887830861
 11
319.1164387223
 21
36.2868462366
  0
LINE
  5
3C1
100
AcDbEntity
  8
_____1
100
AcDbLine
 62
7
  6
CONTINUOUS
 10
319.1164387223
 20
36.953472213
 11
319.1164387223
 21
37.6200981894
  0
LINE
  5
3C2
100
AcDbEntity
  8
_____1
100
AcDbLine
 62
7
  6
CONTINUOUS
 10
319.1164387223
 20
38.2867241658
 11
319.1164387223
 21
40.3851318258
  0
LINE
  5
3C3
100
AcDbEntity
  8
_____1
100
AcDbLine
 62
7
  6
CONTINUOUS
 10
319.1164387223
 20
41.0517578022
 11
319.1164387223
 21
41.7183837786
  0
LINE
  5
3C4
100
AcDbEntity
  8
_____1
100
AcDbLine
 62
7
  6
CONTINUOUS
 10
319.1164387223
 20
42.385009755
 11
319.1164387223
 21
44.4834174151
  0
LINE
  5
3C5
100
AcDbEntity
  8
_____1
100
AcDbLine
 62
7
  6
CONTINUOUS
 10
319.1164387223
 20
45.1500433915
 11
319.1164387223
 21
45.8166693679
  0
LINE
  5
3C6
100
AcDbEntity
  8
_____1
100
AcDbLine
 62
7
  6
CONTINUOUS
 10
319.1164387223
 20
46.4832953443
 11
319.1164387223
 21
48.5813584948
  0
LINE
  5
3C7
100
AcDbEntity
  8
_____1
100
AcDbLine
 62
7
  6
CONTINUOUS
 10
319.1164387223
 20
49.2483289807
 11
319.1164387223
 21
49.9149549571
  0
LINE
  5
3C8
100
AcDbEntity
  8
_____1
100
AcDbLine
 62
7
  6
CONTINUOUS
 10
319.1164387223
 20
50.5815809335
 11
319.1164387223
 21
52.6796440841
  0
LINE
  5
3C9
100
AcDbEntity
  8
_____1
100
AcDbLine
 62
7
  6
CONTINUOUS
 10
319.1164387223
 20
53.3462700604
 11
319.1164387223
 21
54.0128960368
  0
LINE
  5
3CA
100
AcDbEntity
  8
_____1
100
AcDbLine
 62
7
  6
CONTINUOUS
 10
319.1164387223
 20
54.6798665228
 11
319.1164387223
 21
56.7779296733
  0
LINE
  5
3CB
100
AcDbEntity
  8
_____1
100
AcDbLine
 62
7
  6
CONTINUOUS
 10
319.1164387223
 20
57.4445556497
 11
319.1164387223
 21
58.1111816261
  0
LINE
  5
3CC
100
AcDbEntity
  8
_____1
100
AcDbLine
 62
7
  6
CONTINUOUS
 10
319.1164387223
 20
58.7778076025
 11
319.1164387223
 21
60.8762152626
  0
LINE
  5
3CD
100
AcDbEntity
  8
_____1
100
AcDbLine
 62
7
  6
CONTINUOUS
 10
319.1164387223
 20
61.542841239
 11
319.1164387223
 21
62.2094672154
  0
LINE
  5
3CE
100
AcDbEntity
  8
_____1
100
AcDbLine
 62
7
  6
CONTINUOUS
 10
319.1164387223
 20
62.8760931917
 11
319.1164387223
 21
64.9745008518
  0
LINE
  5
3CF
100
AcDbEntity
  8
_____1
100
AcDbLine
 62
7
  6
CONTINUOUS
 10
319.1164387223
 20
65.6411268282
 11
319.1164387223
 21
66.3077528046
  0
LINE
  5
3D0
100
AcDbEntity
  8
_____1
100
AcDbLine
 62
7
  6
CONTINUOUS
 10
319.1164387223
 20
66.974378781
 11
319.1164387223
 21
69.0727864411
  0
LINE
  5
3D1
100
AcDbEntity
  8
_____1
100
AcDbLine
 62
7
  6
CONTINUOUS
 10
319.1164387223
 20
69.7394124175
 11
319.1164387223
 21
70.4060383939
  0
LINE
  5
3D2
100
AcDbEntity
  8
_____1
100
AcDbLine
 62
7
  6
CONTINUOUS
 10
319.1164387223
 20
71.0726643703
 11
319.1164387223
 21
73.1707275208
  0
LINE
  5
3D3
100
AcDbEntity
  8
_____1
100
AcDbLine
 62
7
  6
CONTINUOUS
 10
319.1164387223
 20
73.8373534972
 11
319.1164387223
 21
74.5043239831
  0
LINE
  5
3D4
100
AcDbEntity
  8
_____1
100
AcDbLine
 62
7
  6
CONTINUOUS
 10
319.1164387223
 20
75.1709499595
 11
319.1164387223
 21
77.26901311
  0
LINE
  5
3D5
100
AcDbEntity
  8
_____1
100
AcDbLine
 62
7
  6
CONTINUOUS
 10
319.1164387223
 20
77.9356390864
 11
319.1164387223
 21
78.6022650628
  0
LINE
  5
3D6
100
AcDbEntity
  8
_____1
100
AcDbLine
 62
7
  6
CONTINUOUS
 10
319.1164387223
 20
79.2688910392
 11
319.1164387223
 21
81.3672986993
  0
LINE
  5
3D7
100
AcDbEntity
  8
_____1
100
AcDbLine
 62
7
  6
CONTINUOUS
 10
319.1164387223
 20
82.0339246757
 11
319.1164387223
 21
82.7005506521
  0
LINE
  5
3D8
100
AcDbEntity
  8
_____1
100
AcDbLine
 62
7
  6
CONTINUOUS
 10
319.1164387223
 20
83.3671766285
 11
319.1164387223
 21
85.4655842885
  0
LINE
  5
3D9
100
AcDbEntity
  8
_____1
100
AcDbLine
 62
7
  6
CONTINUOUS
 10
319.1164387223
 20
86.1322102649
 11
319.1164387223
 21
86.7988362413
  0
LINE
  5
3DA
100
AcDbEntity
  8
_____1
100
AcDbLine
 62
7
  6
CONTINUOUS
 10
319.1164387223
 20
87.4654622177
 11
319.1164387223
 21
89.5635253682
  0
LINE
  5
3DB
100
AcDbEntity
  8
_____1
100
AcDbLine
 62
7
  6
CONTINUOUS
 10
319.1164387223
 20
363.6427475762
 11
319.1164387223
 21
445.6465276664
  0
LINE
  5
3DC
100
AcDbEntity
  8
_____1
100
AcDbLine
 62
7
  6
CONTINUOUS
 10
319.1164387223
 20
446.3131536428
 11
319.1164387223
 21
448.3800386791
  0
LINE
  5
3DD
100
AcDbEntity
  8
_____1
100
AcDbLine
 62
7
  6
CONTINUOUS
 10
319.1164387223
 20
449.0466646555
 11
319.1164387223
 21
449.7132906319
  0
LINE
  5
3DE
100
AcDbEntity
  8
_____1
100
AcDbLine
 62
7
  6
CONTINUOUS
 10
319.1164387223
 20
450.3800888631
 11
319.1164387223
 21
452.4468016447
  0
LINE
  5
3DF
100
AcDbEntity
  8
_____1
100
AcDbLine
 62
7
  6
CONTINUOUS
 10
319.1164387223
 20
453.1135998759
 11
319.1164387223
 21
453.7802258523
  0
LINE
  5
3E0
100
AcDbEntity
  8
_____1
100
AcDbLine
 62
7
  6
CONTINUOUS
 10
319.1164387223
 20
454.4468518287
 11
319.1164387223
 21
456.513736865
  0
LINE
  5
3E1
100
AcDbEntity
  8
_____1
100
AcDbLine
 62
7
  6
CONTINUOUS
 10
319.1164387223
 20
457.1803628414
 11
319.1164387223
 21
457.8469888178
  0
LINE
  5
3E2
100
AcDbEntity
  8
_____1
100
AcDbLine
 62
7
  6
CONTINUOUS
 10
319.1164387223
 20
458.5136147942
 11
319.1164387223
 21
460.5806720854
  0
LINE
  5
3E3
100
AcDbEntity
  8
_____1
100
AcDbLine
 62
7
  6
CONTINUOUS
 10
319.1164387223
 20
461.2472980618
 11
319.1164387223
 21
461.9139240382
  0
LINE
  5
3E4
100
AcDbEntity
  8
_____1
100
AcDbLine
 62
7
  6
CONTINUOUS
 10
319.1164387223
 20
462.5805500146
 11
319.1164387223
 21
464.6474350509
  0
LINE
  5
3E5
100
AcDbEntity
  8
_____1
100
AcDbLine
 62
7
  6
CONTINUOUS
 10
319.1164387223
 20
465.3140610273
 11
319.1164387223
 21
465.9808592585
  0
LINE
  5
3E6
100
AcDbEntity
  8
_____1
100
AcDbLine
 62
7
  6
CONTINUOUS
 10
319.1164387223
 20
466.6474852349
 11
319.1164387223
 21
468.7143702713
  0
LINE
  5
3E7
100
AcDbEntity
  8
_____1
100
AcDbLine
 62
7
  6
CONTINUOUS
 10
319.1164387223
 20
469.3809962477
 11
319.1164387223
 21
470.0476222241
  0
LINE
  5
3E8
100
AcDbEntity
  8
_____1
100
AcDbLine
 62
7
  6
CONTINUOUS
 10
319.1164387223
 20
470.7142482005
 11
319.1164387223
 21
472.7811332368
  0
LINE
  5
3E9
100
AcDbEntity
  8
_____1
100
AcDbLine
 62
7
  6
CONTINUOUS
 10
319.1164387223
 20
473.4477592132
 11
319.1164387223
 21
474.1143851896
  0
LINE
  5
3EA
100
AcDbEntity
  8
_____1
100
AcDbLine
 62
7
  6
CONTINUOUS
 10
319.1164387223
 20
474.7811834208
 11
319.1164387223
 21
476.8480684572
  0
LINE
  5
3EB
100
AcDbEntity
  8
_____1
100
AcDbLine
 62
7
  6
CONTINUOUS
 10
319.1164387223
 20
477.5146944336
 11
319.1164387223
 21
478.18132041
  0
LINE
  5
3EC
100
AcDbEntity
  8
_____1
100
AcDbLine
 62
7
  6
CONTINUOUS
 10
319.1164387223
 20
478.8479463864
 11
319.1164387223
 21
480.9148314227
  0
LINE
  5
3ED
100
AcDbEntity
  8
_____1
100
AcDbLine
 62
7
  6
CONTINUOUS
 10
319.1164387223
 20
481.5816296539
 11
319.1164387223
 21
482.2482556303
  0
LINE
  5
3EE
100
AcDbEntity
  8
_____1
100
AcDbLine
 62
7
  6
CONTINUOUS
 10
319.1164387223
 20
482.9148816067
 11
319.1164387223
 21
484.9817666431
  0
LINE
  5
3EF
100
AcDbEntity
  8
_____1
100
AcDbLine
 62
7
  6
CONTINUOUS
 10
319.1164387223
 20
485.6483926195
 11
319.1164387223
 21
486.3150185959
  0
LINE
  5
3F0
100
AcDbEntity
  8
_____1
100
AcDbLine
 62
7
  6
CONTINUOUS
 10
319.1164387223
 20
486.9816445723
 11
319.1164387223
 21
489.0485296086
  0
LINE
  5
3F1
100
AcDbEntity
  8
_____1
100
AcDbLine
 62
7
  6
CONTINUOUS
 10
319.1164387223
 20
489.715155585
 11
319.1164387223
 21
490.3819538162
  0
LINE
  5
3F2
100
AcDbEntity
  8
_____1
100
AcDbLine
 62
7
  6
CONTINUOUS
 10
319.1164387223
 20
491.0485797926
 11
319.1164387223
 21
493.115464829
  0
LINE
  5
3F3
100
AcDbEntity
  8
_____1
100
AcDbLine
 62
7
  6
CONTINUOUS
 10
319.1164387223
 20
493.7820908054
 11
319.1164387223
 21
494.4487167818
  0
LINE
  5
3F4
100
AcDbEntity
  8
_____1
100
AcDbLine
 62
7
  6
CONTINUOUS
 10
319.1164387223
 20
495.1153427582
 11
319.1164387223
 21
497.1824000493
  0
LINE
  5
3F5
100
AcDbEntity
  8
_____1
100
AcDbLine
 62
7
  6
CONTINUOUS
 10
319.1164387223
 20
497.8490260257
 11
319.1164387223
 21
498.5156520021
  0
LINE
  5
3F6
100
AcDbEntity
  8
_____1
100
AcDbLine
 62
7
  6
CONTINUOUS
 10
319.1164387223
 20
499.1822779785
 11
319.1164387223
 21
501.2491630149
  0
LINE
  5
3F7
100
AcDbEntity
  8
_____1
100
AcDbLine
 62
7
  6
CONTINUOUS
 10
319.1164387223
 20
501.9157889913
 11
319.1164387223
 21
502.5824149677
  0
LINE
  5
3F8
100
AcDbEntity
  8
_____1
100
AcDbLine
 62
7
  6
CONTINUOUS
 10
319.1164387223
 20
503.2492131988
 11
319.1164387223
 21
505.3159259804
  0
LINE
  5
3F9
100
AcDbEntity
  8
_____1
100
AcDbLine
 62
7
  6
CONTINUOUS
 10
319.1164387223
 20
505.9827242116
 11
319.1164387223
 21
506.649350188
  0
LINE
  5
3FA
100
AcDbEntity
  8
_____1
100
AcDbLine
 62
7
  6
CONTINUOUS
 10
319.1164387223
 20
507.3159761644
 11
319.1164387223
 21
509.3828612008
  0
LINE
  5
3FB
100
AcDbEntity
  8
_____1
100
AcDbLine
 62
7
  6
CONTINUOUS
 10
319.1164387223
 20
510.0494871772
 11
319.1164387223
 21
510.7161131536
  0
LINE
  5
3FC
100
AcDbEntity
  8
_____1
100
AcDbLine
 62
7
  6
CONTINUOUS
 10
319.1164387223
 20
511.38273913
 11
319.1164387223
 21
513.4497964211
  0
LINE
  5
3FD
100
AcDbEntity
  8
_____1
100
AcDbLine
 62
7
  6
CONTINUOUS
 10
319.1164387223
 20
514.1164223975
 11
319.1164387223
 21
514.7830483739
  0
LINE
  5
3FE
100
AcDbEntity
  8
_____1
100
AcDbLine
 62
7
  6
CONTINUOUS
 10
319.1164387223
 20
515.4496743503
 11
319.1164387223
 21
517.5165593867
  0
LINE
  5
3FF
100
AcDbEntity
  8
_____1
100
AcDbLine
 62
7
  6
CONTINUOUS
 10
319.1164387223
 20
518.1831853631
 11
319.1164387223
 21
518.8499835942
  0
LINE
  5
400
100
AcDbEntity
  8
_____1
100
AcDbLine
 62
7
  6
CONTINUOUS
 10
319.1164387223
 20
519.5166095706
 11
319.1164387223
 21
521.583494607
  0
LINE
  5
401
100
AcDbEntity
  8
_____1
100
AcDbLine
 62
7
  6
CONTINUOUS
 10
319.1164387223
 20
522.2501205834
 11
319.1164387223
 21
522.9167465598
  0
LINE
  5
402
100
AcDbEntity
  8
_____1
100
AcDbLine
 62
7
  6
CONTINUOUS
 10
319.1164387223
 20
523.5833725362
 11
319.1164387223
 21
525.6502575726
  0
LINE
  5
403
100
AcDbEntity
  8
_____1
100
AcDbLine
 62
7
  6
CONTINUOUS
 10
319.1164387223
 20
526.316883549
 11
319.1164387223
 21
526.9835095254
  0
LINE
  5
404
100
AcDbEntity
  8
_____1
100
AcDbLine
 62
7
  6
CONTINUOUS
 10
319.1164387223
 20
527.6503077565
 11
319.1164387223
 21
529.7171927929
  0
LINE
  5
405
100
AcDbEntity
  8
_____1
100
AcDbLine
 62
7
  6
CONTINUOUS
 10
319.1164387223
 20
530.3838187693
 11
319.1164387223
 21
531.0504447457
  0
LINE
  5
406
100
AcDbEntity
  8
_____1
100
AcDbLine
 62
7
  6
CONTINUOUS
 10
319.1164387223
 20
531.7170707221
 11
319.1164387223
 21
533.7839557585
  0
LINE
  5
407
100
AcDbEntity
  8
_____1
100
AcDbLine
 62
7
  6
CONTINUOUS
 10
319.1164387223
 20
534.4507539897
 11
319.1164387223
 21
535.117379966
  0
LINE
  5
408
100
AcDbEntity
  8
_____1
100
AcDbLine
 62
7
  6
CONTINUOUS
 10
319.1164387223
 20
535.7840059424
 11
319.1164387223
 21
537.8508909788
  0
LINE
  5
409
100
AcDbEntity
  8
_____1
100
AcDbLine
 62
7
  6
CONTINUOUS
 10
319.1164387223
 20
538.5175169552
 11
319.1164387223
 21
539.1841429316
  0
LINE
  5
40A
100
AcDbEntity
  8
_____1
100
AcDbLine
 62
7
  6
CONTINUOUS
 10
319.1164387223
 20
539.850768908
 11
319.1164387223
 21
541.9200655112
  0
LINE
  5
40B
100
AcDbEntity
  8
_____1
100
AcDbLine
 62
7
  6
CONTINUOUS
 10
319.7164021011
 20
218.2681585826
 11
319.7164021011
 21
218.0180446504
  0
LINE
  5
40C
100
AcDbEntity
  8
_____1
100
AcDbLine
 62
7
  6
CONTINUOUS
 10
319.8664360094
 20
216.7681640083
 11
319.8664360094
 21
216.5180500761
  0
LINE
  5
40D
100
AcDbEntity
  8
_____1
100
AcDbLine
 62
7
  6
CONTINUOUS
 10
320.9165011133
 20
216.7681640083
 11
320.9165011133
 21
217.7679307181
  0
LINE
  5
40E
100
AcDbEntity
  8
_____1
100
AcDbLine
 62
7
  6
CONTINUOUS
 10
322.1164278709
 20
217.7679307181
 11
322.1164278709
 21
216.7681640083
  0
LINE
  5
40F
100
AcDbEntity
  8
_____1
100
AcDbLine
 62
7
  6
CONTINUOUS
 10
334.1163844651
 20
363.9760605644
 11
334.1163844651
 21
445.2260537624
  0
LINE
  5
410
100
AcDbEntity
  8
_____1
100
AcDbLine
 62
7
  6
CONTINUOUS
 10
334.4913831087
 20
323.9760904138
 11
334.4913831087
 21
372.3235269251
  0
LINE
  5
411
100
AcDbEntity
  8
_____1
100
AcDbLine
 62
7
  6
CONTINUOUS
 10
336.116434649
 20
445.2260537624
 11
336.116434649
 21
482.7260903741
  0
LINE
  5
412
100
AcDbEntity
  8
_____1
100
AcDbLine
 62
7
  6
CONTINUOUS
 10
344.6551038092
 20
420.2671982456
 11
344.6962727003
 21
420.6554605068
  0
LINE
  5
413
100
AcDbEntity
  8
_____1
100
AcDbLine
 62
7
  6
CONTINUOUS
 10
345.9561441192
 20
419.7878132089
 11
345.9149752282
 21
419.3995509477
  0
LINE
  5
414
100
AcDbEntity
  8
_____1
100
AcDbLine
 62
7
  6
CONTINUOUS
 10
345.9973130103
 20
420.1762477248
 11
345.9561441192
 21
419.7878132089
  0
LINE
  5
415
100
AcDbEntity
  8
_____1
100
AcDbLine
 62
7
  6
CONTINUOUS
 10
316.2664834821
 20
216.5180500761
 11
316.1164495737
 21
215.7680527889
  0
LINE
  5
416
100
AcDbEntity
  8
_____1
100
AcDbLine
 62
7
  6
CONTINUOUS
 10
394.1199570412
 20
584.7000554636
 11
393.9849092982
 21
584.0999198301
  0
LINE
  5
417
100
AcDbEntity
  8
_____1
100
AcDbLine
 62
7
  6
CONTINUOUS
 10
393.0399196066
 20
585.8999822211
 11
393.1749673496
 21
586.4999455999
  0
LINE
  5
418
100
AcDbEntity
  8
_____1
100
AcDbLine
 62
7
  6
CONTINUOUS
 10
393.0399196066
 20
584.7000554636
 11
393.1749673496
 21
585.3000188424
  0
LINE
  5
419
100
AcDbEntity
  8
_____1
100
AcDbLine
 62
7
  6
CONTINUOUS
 10
429.5424288206
 20
467.6992728865
 11
428.6856335734
 21
466.419247659
  0
LINE
  5
41A
100
AcDbEntity
  8
_____1
100
AcDbLine
 62
7
  6
CONTINUOUS
 10
134.3266845367
 20
109.0886040309
 11
134.5766262142
 21
109.3886718477
  0
LINE
  5
41B
100
AcDbEntity
  8
_____1
100
AcDbLine
 62
7
  6
CONTINUOUS
 10
137.3266736853
 20
109.0886040309
 11
137.0767320078
 21
108.7885362141
  0
LINE
  5
41C
100
AcDbEntity
  8
_____1
100
AcDbLine
 62
7
  6
CONTINUOUS
 10
137.3266736853
 20
106.6887505159
 11
137.0767320078
 21
106.3886826991
  0
LINE
  5
41D
100
AcDbEntity
  8
_____1
100
AcDbLine
 62
7
  6
CONTINUOUS
 10
143.3664428353
 20
97.640896243
 11
143.6163845127
 21
97.9409640597
  0
LINE
  5
41E
100
AcDbEntity
  8
_____1
100
AcDbLine
 62
7
  6
CONTINUOUS
 10
134.3266845367
 20
106.6887505159
 11
134.5766262142
 21
106.9884738231
  0
LINE
  5
41F
100
AcDbEntity
  8
_____1
100
AcDbLine
 62
7
  6
CONTINUOUS
 10
134.3266845367
 20
104.4387586544
 11
134.5766262142
 21
104.7384819617
  0
LINE
  5
420
100
AcDbEntity
  8
_____1
100
AcDbLine
 62
7
  6
CONTINUOUS
 10
526.9848875636
 20
583.8000242681
 11
526.7151365871
 21
583.4999564513
  0
LINE
  5
421
100
AcDbEntity
  8
_____1
100
AcDbLine
 62
7
  6
CONTINUOUS
 10
392.5055852968
 20
402.208696731
 11
391.3327025389
 21
401.2103080594
  0
LINE
  5
422
100
AcDbEntity
  8
_____1
100
AcDbLine
 62
7
  6
CONTINUOUS
 10
235.2871025345
 20
276.3173284899
 11
234.6745645572
 21
275.8591307904
  0
LINE
  5
423
100
AcDbEntity
  8
_____1
100
AcDbLine
 62
7
  6
CONTINUOUS
 10
399.9745523089
 20
406.5098984444
 11
399.7079019183
 21
406.3722668797
  0
LINE
  5
424
100
AcDbEntity
  8
_____1
100
AcDbLine
 62
7
  6
CONTINUOUS
 10
398.9060559441
 20
407.9277274913
 11
399.1725340799
 21
408.0651868012
  0
LINE
  5
425
100
AcDbEntity
  8
_____1
100
AcDbLine
 62
7
  6
CONTINUOUS
 10
401.4411294569
 20
407.2659246486
 11
402.5077310192
 21
407.8159341428
  0
LINE
  5
426
100
AcDbEntity
  8
_____1
100
AcDbLine
 62
7
  6
CONTINUOUS
 10
400.4663396894
 20
410.138617519
 11
400.7329900799
 21
410.2760768289
  0
LINE
  5
427
100
AcDbEntity
  8
_____1
100
AcDbLine
 62
7
  6
CONTINUOUS
 10
398.3331365649
 20
409.0387707853
 11
398.5997869555
 21
409.1762300952
  0
LINE
  5
428
100
AcDbEntity
  8
_____1
100
AcDbLine
 62
7
  6
CONTINUOUS
 10
403.2659965355
 20
411.5821125273
 11
402.4662176186
 21
411.1697345977
  0
LINE
  5
429
100
AcDbEntity
  8
_____1
100
AcDbLine
 62
7
  6
CONTINUOUS
 10
395.8001301094
 20
407.7327350869
 11
396.466583831
 21
408.0763833615
  0
LINE
  5
42A
100
AcDbEntity
  8
_____1
100
AcDbLine
 62
7
  6
CONTINUOUS
 10
403.0577405134
 20
410.3496296175
 11
403.3243909039
 21
410.4870889273
  0
LINE
  5
42B
100
AcDbEntity
  8
_____1
100
AcDbLine
 62
7
  6
CONTINUOUS
 10
397.1540526351
 20
406.7431314087
 11
396.4874266587
 21
406.3994831341
  0
LINE
  5
42C
100
AcDbEntity
  8
_____1
100
AcDbLine
 62
7
  6
CONTINUOUS
 10
404.2409585578
 20
408.7094196569
 11
403.9743081672
 21
408.5719603471
  0
LINE
  5
42D
100
AcDbEntity
  8
_____1
100
AcDbLine
 62
7
  6
CONTINUOUS
 10
391.3327025389
 20
401.2103080594
 11
405.5178831994
 21
408.5240735198
  0
LINE
  5
42E
100
AcDbEntity
  8
_____1
100
AcDbLine
 62
7
  6
CONTINUOUS
 10
430.4715710729
 20
413.9924735836
 11
430.2431612423
 21
413.890671012
  0
LINE
  5
42F
100
AcDbEntity
  8
_____1
100
AcDbLine
 62
7
  6
CONTINUOUS
 10
429.1624347885
 20
413.2454046276
 11
428.9340249579
 21
413.143602056
  0
LINE
  5
430
100
AcDbEntity
  8
_____1
100
AcDbLine
 62
7
  6
CONTINUOUS
 10
429.7081379134
 20
416.9364799305
 11
426.9675644549
 21
415.7162271096
  0
LINE
  5
431
100
AcDbEntity
  8
_____1
100
AcDbLine
 62
7
  6
CONTINUOUS
 10
432.6054632165
 20
411.6585936471
 11
432.1486435552
 21
411.4551607587
  0
LINE
  5
432
100
AcDbEntity
  8
_____1
100
AcDbLine
 62
7
  6
CONTINUOUS
 10
431.4479111335
 20
411.799842562
 11
430.9910914721
 21
411.5965819284
  0
LINE
  5
433
100
AcDbEntity
  8
_____1
100
AcDbLine
 62
7
  6
CONTINUOUS
 10
432.5551648224
 20
410.5416936908
 11
433.0119844838
 21
410.7449543244
  0
LINE
  5
434
100
AcDbEntity
  8
_____1
100
AcDbLine
 62
7
  6
CONTINUOUS
 10
226.5546467533
 20
335.5760714222
 11
227.0545301082
 21
335.7261053306
  0
LINE
  5
435
100
AcDbEntity
  8
_____1
100
AcDbLine
 62
7
  6
CONTINUOUS
 10
228.5545246824
 20
334.6760402267
 11
228.0546413275
 21
334.5260063183
  0
LINE
  5
436
100
AcDbEntity
  8
_____1
100
AcDbLine
 62
7
  6
CONTINUOUS
 10
227.5545857179
 20
333.3260795608
 11
228.0546413275
 21
333.4761134691
  0
LINE
  5
437
100
AcDbEntity
  8
_____1
100
AcDbLine
 62
7
  6
CONTINUOUS
 10
831.0400578435
 20
193.8000569177
 11
831.714952049
 21
193.8000569177
  0
LINE
  5
438
100
AcDbEntity
  8
_____1
100
AcDbLine
 62
7
  6
CONTINUOUS
 10
831.0400578435
 20
195.6001193087
 11
832.1200952781
 21
195.6001193087
  0
LINE
  5
439
100
AcDbEntity
  8
_____1
100
AcDbLine
 62
7
  6
CONTINUOUS
 10
284.1165079042
 20
215.0180555018
 11
285.6165024785
 21
214.6680338005
  0
LINE
  5
43A
100
AcDbEntity
  8
_____1
100
AcDbLine
 62
7
  6
CONTINUOUS
 10
354.1165417952
 20
215.0180555018
 11
352.6165472209
 21
215.3680772031
  0
LINE
  5
43B
100
AcDbEntity
  8
_____1
100
AcDbLine
 62
7
  6
CONTINUOUS
 10
500.098328868
 20
120.5459580862
 11
500.6984645016
 21
120.0457302217
  0
LINE
  5
43C
100
AcDbEntity
  8
_____1
100
AcDbLine
 62
7
  6
CONTINUOUS
 10
500.098328868
 20
118.7958495797
 11
499.7986055608
 21
119.0459635119
  0
LINE
  5
43D
100
AcDbEntity
  8
_____1
100
AcDbLine
 62
7
  6
CONTINUOUS
 10
499.7986055608
 20
120.7960720184
 11
500.098328868
 21
120.5459580862
  0
LINE
  5
43E
100
AcDbEntity
  8
_____1
100
AcDbLine
 62
7
  6
CONTINUOUS
 10
209.2488986022
 20
414.2605020123
 11
209.5837618834
 21
413.7831840328
  0
LINE
  5
43F
100
AcDbEntity
  8
_____1
100
AcDbLine
 62
7
  6
CONTINUOUS
 10
207.6643269338
 20
413.1599662596
 11
207.8317585743
 21
412.9212211424
  0
LINE
  5
440
100
AcDbEntity
  8
_____1
100
AcDbLine
 62
7
  6
CONTINUOUS
 10
209.0955918531
 20
412.6869546494
 11
209.4304551343
 21
412.2094644152
  0
LINE
  5
441
100
AcDbEntity
  8
_____1
100
AcDbLine
 62
7
  6
CONTINUOUS
 10
208.8689045702
 20
415.2507947096
 11
209.0363362108
 21
415.0120495924
  0
LINE
  5
442
100
AcDbEntity
  8
_____1
100
AcDbLine
 62
7
  6
CONTINUOUS
 10
207.9239148786
 20
414.3578259598
 11
207.7566554928
 21
414.5965710769
  0
LINE
  5
443
100
AcDbEntity
  8
_____1
100
AcDbLine
 62
7
  6
CONTINUOUS
 10
193.6749999516
 20
583.8000242681
 11
193.5399522086
 21
584.0999198301
  0
LINE
  5
444
100
AcDbEntity
  8
_____1
100
AcDbLine
 62
7
  6
CONTINUOUS
 10
194.4849419002
 20
585.3000188424
 11
194.7550373862
 21
584.7000554636
  0
LINE
  5
445
100
AcDbEntity
  8
_____1
100
AcDbLine
 62
7
  6
CONTINUOUS
 10
194.4849419002
 20
586.8000134167
 11
194.6199896432
 21
586.4999455999
  0
LINE
  5
446
100
AcDbEntity
  8
_____1
100
AcDbLine
 62
7
  6
CONTINUOUS
 10
336.116434649
 20
482.7260903741
 11
333.4428682977
 21
515.1571857436
  0
LINE
  5
447
100
AcDbEntity
  8
_____1
100
AcDbLine
 62
7
  6
CONTINUOUS
 10
340.2414197283
 20
369.7374659991
 11
340.2414197283
 21
326.4760239527
  0
LINE
  5
448
100
AcDbEntity
  8
_____1
100
AcDbLine
 62
7
  6
CONTINUOUS
 10
354.1165417952
 20
343.2879176659
 11
354.1165417952
 21
301.4761717996
  0
LINE
  5
449
100
AcDbEntity
  8
_____1
100
AcDbLine
 62
7
  6
CONTINUOUS
 10
354.1165417952
 20
300.4760605803
 11
354.1165417952
 21
214.0179442824
  0
LINE
  5
44A
100
AcDbEntity
  8
_____1
100
AcDbLine
 62
7
  6
CONTINUOUS
 10
361.5999782082
 20
582.5000174868
 11
361.5999782082
 21
586.4999455999
  0
LINE
  5
44B
100
AcDbEntity
  8
_____1
100
AcDbLine
 62
7
  6
CONTINUOUS
 10
345.3224188047
 20
422.3079005563
 11
345.3170789067
 21
421.9544337595
  0
LINE
  5
44C
100
AcDbEntity
  8
_____1
100
AcDbLine
 62
7
  6
CONTINUOUS
 10
346.3776515519
 20
421.9384140655
 11
346.3829914499
 21
422.2918808623
  0
LINE
  5
44D
100
AcDbEntity
  8
_____1
100
AcDbLine
 62
7
  6
CONTINUOUS
 10
361.0001870842
 20
346.9962184462
 11
360.7760836229
 21
345.4462699874
  0
LINE
  5
44E
100
AcDbEntity
  8
_____1
100
AcDbLine
 62
7
  6
CONTINUOUS
 10
375.2883760998
 20
349.9905231872
 11
375.3517658567
 21
350.2323688903
  0
LINE
  5
44F
100
AcDbEntity
  8
_____1
100
AcDbLine
 62
7
  6
CONTINUOUS
 10
365.5683836977
 20
352.5448892348
 11
366.3307833286
 21
355.4463486525
  0
LINE
  5
450
100
AcDbEntity
  8
_____1
100
AcDbLine
 62
7
  6
CONTINUOUS
 10
369.2322427462
 20
354.6837767668
 11
368.4698431153
 21
351.7823173491
  0
LINE
  5
451
100
AcDbEntity
  8
_____1
100
AcDbLine
 62
7
  6
CONTINUOUS
 10
370.4648979109
 20
352.2920192262
 11
370.7189737029
 21
353.2592297836
  0
LINE
  5
452
100
AcDbEntity
  8
_____1
100
AcDbLine
 62
7
  6
CONTINUOUS
 10
377.4284694152
 20
350.4621567592
 11
377.6825452072
 21
351.4293673167
  0
LINE
  5
453
100
AcDbEntity
  8
_____1
100
AcDbLine
 62
7
  6
CONTINUOUS
 10
367.3643119741
 20
354.6577662959
 11
367.2371879507
 21
354.1740748898
  0
LINE
  5
454
100
AcDbEntity
  8
_____1
100
AcDbLine
 62
7
  6
CONTINUOUS
 10
374.3278834785
 20
352.8277315741
 11
374.2007594551
 21
352.3442124228
  0
LINE
  5
455
100
AcDbEntity
  8
_____1
100
AcDbLine
 62
7
  6
CONTINUOUS
 10
320.9165011133
 20
217.7679307181
 11
321.066362767
 21
218.2681585826
  0
LINE
  5
456
100
AcDbEntity
  8
_____1
100
AcDbLine
 62
7
  6
CONTINUOUS
 10
322.1164278709
 20
216.7681640083
 11
321.9663939625
 21
216.2679361438
  0
LINE
  5
457
100
AcDbEntity
  8
_____1
100
AcDbLine
 62
7
  6
CONTINUOUS
 10
404.3930595235
 20
409.0692598804
 11
404.2409585578
 21
408.7094196569
  0
LINE
  5
458
100
AcDbEntity
  8
_____1
100
AcDbLine
 62
7
  6
CONTINUOUS
 10
397.3061536008
 20
407.1027993774
 11
397.1540526351
 21
406.7431314087
  0
LINE
  5
459
100
AcDbEntity
  8
_____1
100
AcDbLine
 62
7
  6
CONTINUOUS
 10
398.1810355992
 20
408.6791028167
 11
398.3331365649
 21
409.0387707853
  0
LINE
  5
45A
100
AcDbEntity
  8
_____1
100
AcDbLine
 62
7
  6
CONTINUOUS
 10
400.3142387237
 20
409.7789495503
 11
400.4663396894
 21
410.138617519
  0
LINE
  5
45B
100
AcDbEntity
  8
_____1
100
AcDbLine
 62
7
  6
CONTINUOUS
 10
400.1266532745
 20
406.869566413
 11
399.9745523089
 21
406.5098984444
  0
LINE
  5
45C
100
AcDbEntity
  8
_____1
100
AcDbLine
 62
7
  6
CONTINUOUS
 10
401.5723875949
 20
409.3024928447
 11
401.2681856636
 21
408.5831569074
  0
LINE
  5
45D
100
AcDbEntity
  8
_____1
100
AcDbLine
 62
7
  6
CONTINUOUS
 10
402.9056395477
 20
409.9899616488
 11
403.0577405134
 21
410.3496296175
  0
LINE
  5
45E
100
AcDbEntity
  8
_____1
100
AcDbLine
 62
7
  6
CONTINUOUS
 10
399.3248073003
 20
408.4248547699
 11
399.1725340799
 21
408.0651868012
  0
LINE
  5
45F
100
AcDbEntity
  8
_____1
100
AcDbLine
 62
7
  6
CONTINUOUS
 10
368.8021225749
 20
341.7171263794
 11
368.907370242
 21
341.9438136623
  0
LINE
  5
460
100
AcDbEntity
  8
_____1
100
AcDbLine
 62
7
  6
CONTINUOUS
 10
359.6879502139
 20
345.9520100047
 11
360.9519557474
 21
348.6726019094
  0
LINE
  5
461
100
AcDbEntity
  8
_____1
100
AcDbLine
 62
7
  6
CONTINUOUS
 10
363.6725476521
 20
347.4085963758
 11
362.4085421186
 21
344.6878322163
  0
LINE
  5
462
100
AcDbEntity
  8
_____1
100
AcDbLine
 62
7
  6
CONTINUOUS
 10
364.9930527516
 20
343.4868719302
 11
366.2572305399
 21
346.2076360897
  0
LINE
  5
463
100
AcDbEntity
  8
_____1
100
AcDbLine
 62
7
  6
CONTINUOUS
 10
368.3590832955
 20
344.679736242
 11
368.1484157066
 21
344.2261894213
  0
LINE
  5
464
100
AcDbEntity
  8
_____1
100
AcDbLine
 62
7
  6
CONTINUOUS
 10
361.8295938223
 20
347.7134873263
 11
361.6189262334
 21
347.2601127604
  0
LINE
  5
465
100
AcDbEntity
  8
_____1
100
AcDbLine
 62
7
  6
CONTINUOUS
 10
372.8675075023
 20
351.4021510623
 11
372.531955202
 21
350.714854513
  0
LINE
  5
466
100
AcDbEntity
  8
_____1
100
AcDbLine
 62
7
  6
CONTINUOUS
 10
433.3278997398
 20
485.1293889846
 11
432.5510307078
 21
483.7994098725
  0
LINE
  5
467
100
AcDbEntity
  8
_____1
100
AcDbLine
 62
7
  6
CONTINUOUS
 10
371.6253783251
 20
351.9871282757
 11
371.3533880365
 21
351.5416774295
  0
LINE
  5
468
100
AcDbEntity
  8
_____1
100
AcDbLine
 62
7
  6
CONTINUOUS
 10
370.7189737029
 20
353.2592297836
 11
370.9911362462
 21
353.7046806299
  0
LINE
  5
469
100
AcDbEntity
  8
_____1
100
AcDbLine
 62
7
  6
CONTINUOUS
 10
370.4648979109
 20
352.2920192262
 11
370.7370604542
 21
352.7374700724
  0
LINE
  5
46A
100
AcDbEntity
  8
_____1
100
AcDbLine
 62
7
  6
CONTINUOUS
 10
377.6825452072
 20
351.4293673167
 11
377.9547077506
 21
351.8748181629
  0
LINE
  5
46B
100
AcDbEntity
  8
_____1
100
AcDbLine
 62
7
  6
CONTINUOUS
 10
377.4284694152
 20
350.4621567592
 11
377.7006319585
 21
350.9076076054
  0
LINE
  5
46C
100
AcDbEntity
  8
_____1
100
AcDbLine
 62
7
  6
CONTINUOUS
 10
378.5891220842
 20
350.157093554
 11
378.3169595408
 21
349.7116427077
  0
LINE
  5
46D
100
AcDbEntity
  8
_____1
100
AcDbLine
 62
7
  6
CONTINUOUS
 10
372.1066581644
 20
343.4898002613
 11
371.4439940478
 21
342.4194090941
  0
LINE
  5
46E
100
AcDbEntity
  8
_____1
100
AcDbLine
 62
7
  6
CONTINUOUS
 10
431.6149982645
 20
412.0385876791
 11
431.4479111335
 21
411.799842562
  0
LINE
  5
46F
100
AcDbEntity
  8
_____1
100
AcDbLine
 62
7
  6
CONTINUOUS
 10
429.3295219196
 20
413.4839774899
 11
429.1624347885
 21
413.2454046276
  0
LINE
  5
470
100
AcDbEntity
  8
_____1
100
AcDbLine
 62
7
  6
CONTINUOUS
 10
427.9890352663
 20
414.036398551
 11
428.1564669068
 21
414.2751436681
  0
LINE
  5
471
100
AcDbEntity
  8
_____1
100
AcDbLine
 62
7
  6
CONTINUOUS
 10
429.4969535602
 20
413.7227226071
 11
429.3295219196
 21
413.4839774899
  0
LINE
  5
472
100
AcDbEntity
  8
_____1
100
AcDbLine
 62
7
  6
CONTINUOUS
 10
430.6390027135
 20
414.2312187007
 11
430.4715710729
 21
413.9924735836
  0
LINE
  5
473
100
AcDbEntity
  8
_____1
100
AcDbLine
 62
7
  6
CONTINUOUS
 10
366.6694362148
 20
343.535103267
 11
366.2174396871
 21
342.9180866656
  0
LINE
  5
474
100
AcDbEntity
  8
_____1
100
AcDbLine
 62
7
  6
CONTINUOUS
 10
142.3665038707
 20
92.6909830497
 11
142.6164455481
 21
92.9910508665
  0
LINE
  5
475
100
AcDbEntity
  8
_____1
100
AcDbLine
 62
7
  6
CONTINUOUS
 10
135.5767374336
 20
74.9656222686
 11
135.3267957561
 21
74.6655544518
  0
LINE
  5
476
100
AcDbEntity
  8
_____1
100
AcDbLine
 62
7
  6
CONTINUOUS
 10
137.3266736853
 20
74.9656222686
 11
137.0767320078
 21
74.6655544518
  0
LINE
  5
477
100
AcDbEntity
  8
_____1
100
AcDbLine
 62
7
  6
CONTINUOUS
 10
145.3664930192
 20
97.3408284262
 11
145.116379087
 21
97.0407606094
  0
LINE
  5
478
100
AcDbEntity
  8
_____1
100
AcDbLine
 62
7
  6
CONTINUOUS
 10
145.3664930192
 20
92.6909830497
 11
145.116379087
 21
92.390915233
  0
LINE
  5
479
100
AcDbEntity
  8
_____1
100
AcDbLine
 62
7
  6
CONTINUOUS
 10
134.3266845367
 20
75.2656900854
 11
134.5766262142
 21
75.5654133926
  0
LINE
  5
47A
100
AcDbEntity
  8
_____1
100
AcDbLine
 62
7
  6
CONTINUOUS
 10
135.5767374336
 20
75.2656900854
 11
135.826679111
 21
75.5654133926
  0
LINE
  5
47B
100
AcDbEntity
  8
_____1
100
AcDbLine
 62
7
  6
CONTINUOUS
 10
372.2162122008
 20
341.2336072281
 11
371.8694633402
 21
340.8432779096
  0
LINE
  5
47C
100
AcDbEntity
  8
_____1
100
AcDbLine
 62
7
  6
CONTINUOUS
 10
593.3498289532
 20
583.8000242681
 11
593.0800779767
 21
583.4999564513
  0
LINE
  5
47D
100
AcDbEntity
  8
_____1
100
AcDbLine
 62
7
  6
CONTINUOUS
 10
592.8099824907
 20
586.8000134167
 11
593.0800779767
 21
587.1000812334
  0
LINE
  5
47E
100
AcDbEntity
  8
_____1
100
AcDbLine
 62
7
  6
CONTINUOUS
 10
373.1672308095
 20
353.1327947793
 11
373.3758313411
 21
353.3365721773
  0
LINE
  5
47F
100
AcDbEntity
  8
_____1
100
AcDbLine
 62
7
  6
CONTINUOUS
 10
373.2847085655
 20
351.8095336035
 11
372.8675075023
 21
351.4021510623
  0
LINE
  5
480
100
AcDbEntity
  8
_____1
100
AcDbLine
 62
7
  6
CONTINUOUS
 10
367.2371879507
 20
354.1740748898
 11
367.0285874191
 21
353.9704697466
  0
LINE
  5
481
100
AcDbEntity
  8
_____1
100
AcDbLine
 62
7
  6
CONTINUOUS
 10
370.9911362462
 20
353.7046806299
 11
371.1997367779
 21
353.9082857731
  0
LINE
  5
482
100
AcDbEntity
  8
_____1
100
AcDbLine
 62
7
  6
CONTINUOUS
 10
371.3533880365
 20
351.5416774295
 11
371.1446152501
 21
351.3379000315
  0
LINE
  5
483
100
AcDbEntity
  8
_____1
100
AcDbLine
 62
7
  6
CONTINUOUS
 10
374.2007594551
 20
352.3442124228
 11
373.9921589234
 21
352.1406072796
  0
LINE
  5
484
100
AcDbEntity
  8
_____1
100
AcDbLine
 62
7
  6
CONTINUOUS
 10
377.9547077506
 20
351.8748181629
 11
378.1633082822
 21
352.0784233061
  0
LINE
  5
485
100
AcDbEntity
  8
_____1
100
AcDbLine
 62
7
  6
CONTINUOUS
 10
378.3169595408
 20
349.7116427077
 11
378.1081867544
 21
349.5080375645
  0
LINE
  5
486
100
AcDbEntity
  8
_____1
100
AcDbLine
 62
7
  6
CONTINUOUS
 10
366.2572305399
 20
346.2076360897
 11
364.3569158703
 21
344.6096285488
  0
LINE
  5
487
100
AcDbEntity
  8
_____1
100
AcDbLine
 62
7
  6
CONTINUOUS
 10
367.2709498865
 20
345.1853040044
 11
367.5122788252
 21
345.3487737852
  0
LINE
  5
488
100
AcDbEntity
  8
_____1
100
AcDbLine
 62
7
  6
CONTINUOUS
 10
368.1484157066
 20
344.2261894213
 11
367.9070867678
 21
344.0627196405
  0
LINE
  5
489
100
AcDbEntity
  8
_____1
100
AcDbLine
 62
7
  6
CONTINUOUS
 10
367.152266347
 20
343.8620428285
 11
366.6694362148
 21
343.535103267
  0
LINE
  5
48A
100
AcDbEntity
  8
_____1
100
AcDbLine
 62
7
  6
CONTINUOUS
 10
361.6189262334
 20
347.2601127604
 11
361.3774250399
 21
347.0966429796
  0
LINE
  5
48B
100
AcDbEntity
  8
_____1
100
AcDbLine
 62
7
  6
CONTINUOUS
 10
371.8694633402
 20
340.8432779096
 11
371.6279621467
 21
340.6798081288
  0
LINE
  5
48C
100
AcDbEntity
  8
_____1
100
AcDbLine
 62
7
  6
CONTINUOUS
 10
367.0285874191
 20
353.9704697466
 11
366.6749483675
 21
353.8049329085
  0
LINE
  5
48D
100
AcDbEntity
  8
_____1
100
AcDbLine
 62
7
  6
CONTINUOUS
 10
371.1997367779
 20
353.9082857731
 11
371.5533758294
 21
354.0738226111
  0
LINE
  5
48E
100
AcDbEntity
  8
_____1
100
AcDbLine
 62
7
  6
CONTINUOUS
 10
371.1446152501
 20
351.3379000315
 11
370.7909761985
 21
351.1723631935
  0
LINE
  5
48F
100
AcDbEntity
  8
_____1
100
AcDbLine
 62
7
  6
CONTINUOUS
 10
378.1081867544
 20
349.5080375645
 11
377.7545477029
 21
349.3425007265
  0
LINE
  5
490
100
AcDbEntity
  8
_____1
100
AcDbLine
 62
7
  6
CONTINUOUS
 10
373.9921589234
 20
352.1406072796
 11
373.2847085655
 21
351.8095336035
  0
LINE
  5
491
100
AcDbEntity
  8
_____1
100
AcDbLine
 62
7
  6
CONTINUOUS
 10
378.1633082822
 20
352.0784233061
 11
378.5171195885
 21
352.2439601441
  0
LINE
  5
492
100
AcDbEntity
  8
_____1
100
AcDbLine
 62
7
  6
CONTINUOUS
 10
373.3758313411
 20
353.3365721773
 11
373.7296426475
 21
353.5019367606
  0
LINE
  5
493
100
AcDbEntity
  8
_____1
100
AcDbLine
 62
7
  6
CONTINUOUS
 10
261.4637993053
 20
306.7246025166
 11
326.4682724878
 21
329.1073878843
  0
LINE
  5
494
100
AcDbEntity
  8
_____1
100
AcDbLine
 62
7
  6
CONTINUOUS
 10
352.6165472209
 20
214.6680338005
 11
354.1165417952
 21
215.0180555018
  0
LINE
  5
495
100
AcDbEntity
  8
_____1
100
AcDbLine
 62
7
  6
CONTINUOUS
 10
284.1165079042
 20
215.0180555018
 11
354.1165417952
 21
215.0180555018
  0
LINE
  5
496
100
AcDbEntity
  8
_____1
100
AcDbLine
 62
7
  6
CONTINUOUS
 10
319.2664726307
 20
215.7680527889
 11
318.9664048139
 21
215.7680527889
  0
LINE
  5
497
100
AcDbEntity
  8
_____1
100
AcDbLine
 62
7
  6
CONTINUOUS
 10
316.1164495737
 20
215.7680527889
 11
317.3163763313
 21
215.7680527889
  0
LINE
  5
498
100
AcDbEntity
  8
_____1
100
AcDbLine
 62
7
  6
CONTINUOUS
 10
318.9664048139
 20
217.5181612954
 11
319.2664726307
 21
217.5181612954
  0
LINE
  5
499
100
AcDbEntity
  8
_____1
100
AcDbLine
 62
7
  6
CONTINUOUS
 10
316.5663790441
 20
218.7680419375
 11
316.8664468609
 21
218.7680419375
  0
LINE
  5
49A
100
AcDbEntity
  8
_____1
100
AcDbLine
 62
7
  6
CONTINUOUS
 10
318.9664048139
 20
218.7680419375
 11
319.2664726307
 21
218.7680419375
  0
LINE
  5
49B
100
AcDbEntity
  8
_____1
100
AcDbLine
 62
7
  6
CONTINUOUS
 10
829.5001001615
 20
228.9999755287
 11
833.3000404818
 21
228.9999755287
  0
LINE
  5
49C
100
AcDbEntity
  8
_____1
100
AcDbLine
 62
7
  6
CONTINUOUS
 10
377.7690171039
 20
237.9744492678
 11
501.1163545839
 21
237.9744492678
  0
LINE
  5
49D
100
AcDbEntity
  8
_____1
100
AcDbLine
 62
7
  6
CONTINUOUS
 10
380.4970159639
 20
240.8593722271
 11
493.1164983576
 21
240.8593722271
  0
LINE
  5
49E
100
AcDbEntity
  8
_____1
100
AcDbLine
 62
7
  6
CONTINUOUS
 10
227.8045273953
 20
330.1760565038
 11
228.304583005
 21
329.8761609418
  0
LINE
  5
49F
100
AcDbEntity
  8
_____1
100
AcDbLine
 62
7
  6
CONTINUOUS
 10
226.5546467533
 20
329.7261270335
 11
226.304532821
 21
329.8761609418
  0
LINE
  5
4A0
100
AcDbEntity
  8
_____1
100
AcDbLine
 62
7
  6
CONTINUOUS
 10
227.0545301082
 20
330.926053791
 11
227.3046440404
 21
330.7760198826
  0
LINE
  5
4A1
100
AcDbEntity
  8
_____1
100
AcDbLine
 62
7
  6
CONTINUOUS
 10
228.5545246824
 20
333.3260795608
 11
228.8046386147
 21
333.1760456524
  0
LINE
  5
4A2
100
AcDbEntity
  8
_____1
100
AcDbLine
 62
7
  6
CONTINUOUS
 10
226.5546467533
 20
334.6760402267
 11
226.304532821
 21
334.826074135
  0
LINE
  5
4A3
100
AcDbEntity
  8
_____1
100
AcDbLine
 62
7
  6
CONTINUOUS
 10
228.5545246824
 20
335.5760714222
 11
228.8046386147
 21
335.4260375138
  0
LINE
  5
4A4
100
AcDbEntity
  8
_____1
100
AcDbLine
 62
7
  6
CONTINUOUS
 10
500.6984645016
 20
121.5460693056
 11
500.3983966848
 21
121.7958387282
  0
LINE
  5
4A5
100
AcDbEntity
  8
_____1
100
AcDbLine
 62
7
  6
CONTINUOUS
 10
507.4484400858
 20
121.7958387282
 11
507.7485079026
 21
121.5460693056
  0
LINE
  5
4A6
100
AcDbEntity
  8
_____1
100
AcDbLine
 62
7
  6
CONTINUOUS
 10
521.9984563582
 20
121.7958387282
 11
522.298524175
 21
121.5460693056
  0
LINE
  5
4A7
100
AcDbEntity
  8
_____1
100
AcDbLine
 62
7
  6
CONTINUOUS
 10
514.4984834868
 20
118.7958495797
 11
514.1984156701
 21
119.0459635119
  0
LINE
  5
4A8
100
AcDbEntity
  8
_____1
100
AcDbLine
 62
7
  6
CONTINUOUS
 10
286.1837374502
 20
452.5492932354
 11
286.0197509051
 21
452.9037935608
  0
LINE
  5
4A9
100
AcDbEntity
  8
_____1
100
AcDbLine
 62
7
  6
CONTINUOUS
 10
285.8778129711
 20
455.2710909235
 11
285.713826426
 21
455.6255912489
  0
LINE
  5
4AA
100
AcDbEntity
  8
_____1
100
AcDbLine
 62
7
  6
CONTINUOUS
 10
287.8654608113
 20
453.0304008199
 11
288.0292751016
 21
452.6759004945
  0
LINE
  5
4AB
100
AcDbEntity
  8
_____1
100
AcDbLine
 62
7
  6
CONTINUOUS
 10
361.7987602177
 20
348.0035643661
 11
361.8295938223
 21
347.7134873263
  0
LINE
  5
4AC
100
AcDbEntity
  8
_____1
100
AcDbLine
 62
7
  6
CONTINUOUS
 10
368.3284219457
 20
344.969641027
 11
368.3590832955
 21
344.679736242
  0
LINE
  5
4AD
100
AcDbEntity
  8
_____1
100
AcDbLine
 62
7
  6
CONTINUOUS
 10
368.907370242
 20
341.9438136623
 11
368.9380315918
 21
341.6539088773
  0
LINE
  5
4AE
100
AcDbEntity
  8
_____1
100
AcDbLine
 62
7
  6
CONTINUOUS
 10
372.2601371682
 20
342.0401040812
 11
372.290798518
 21
341.7501992961
  0
LINE
  5
4AF
100
AcDbEntity
  8
_____1
100
AcDbLine
 62
7
  6
CONTINUOUS
 10
370.8118190262
 20
341.058940887
 11
370.7811576764
 21
341.3490179268
  0
LINE
  5
4B0
100
AcDbEntity
  8
_____1
100
AcDbLine
 62
7
  6
CONTINUOUS
 10
378.5710353329
 20
350.6788532652
 11
378.5891220842
 21
350.157093554
  0
LINE
  5
4B1
100
AcDbEntity
  8
_____1
100
AcDbLine
 62
7
  6
CONTINUOUS
 10
366.6749483675
 20
353.8049329085
 11
366.7288641119
 21
352.2398260296
  0
LINE
  5
4B2
100
AcDbEntity
  8
_____1
100
AcDbLine
 62
7
  6
CONTINUOUS
 10
370.4828124074
 20
351.7702595149
 11
370.4648979109
 21
352.2920192262
  0
LINE
  5
4B3
100
AcDbEntity
  8
_____1
100
AcDbLine
 62
7
  6
CONTINUOUS
 10
371.6074638285
 20
352.5087157322
 11
371.6253783251
 21
351.9871282757
  0
LINE
  5
4B4
100
AcDbEntity
  8
_____1
100
AcDbLine
 62
7
  6
CONTINUOUS
 10
377.4463839117
 20
349.9403970479
 11
377.4284694152
 21
350.4621567592
  0
LINE
  5
4B5
100
AcDbEntity
  8
_____1
100
AcDbLine
 62
7
  6
CONTINUOUS
 10
393.0399196066
 20
584.7000554636
 11
393.0399196066
 21
585.8999822211
  0
LINE
  5
4B6
100
AcDbEntity
  8
_____1
100
AcDbLine
 62
7
  6
CONTINUOUS
 10
399.343410816
 20
408.7157930836
 11
399.3248073003
 21
408.4248547699
  0
LINE
  5
4B7
100
AcDbEntity
  8
_____1
100
AcDbLine
 62
7
  6
CONTINUOUS
 10
401.2681856636
 20
408.5831569074
 11
401.2308063776
 21
408.0012802799
  0
LINE
  5
4B8
100
AcDbEntity
  8
_____1
100
AcDbLine
 62
7
  6
CONTINUOUS
 10
397.3249293712
 20
407.3937376911
 11
397.3061536008
 21
407.1027993774
  0
LINE
  5
4B9
100
AcDbEntity
  8
_____1
100
AcDbLine
 62
7
  6
CONTINUOUS
 10
400.2954629533
 20
409.4880112366
 11
400.3142387237
 21
409.7789495503
  0
LINE
  5
4BA
100
AcDbEntity
  8
_____1
100
AcDbLine
 62
7
  6
CONTINUOUS
 10
401.5911633653
 20
409.5934311585
 11
401.5723875949
 21
409.3024928447
  0
LINE
  5
4BB
100
AcDbEntity
  8
_____1
100
AcDbLine
 62
7
  6
CONTINUOUS
 10
400.1642048153
 20
407.4514430405
 11
400.1266532745
 21
406.869566413
  0
LINE
  5
4BC
100
AcDbEntity
  8
_____1
100
AcDbLine
 62
7
  6
CONTINUOUS
 10
372.290798518
 20
341.7501992961
 11
372.2162122008
 21
341.2336072281
  0
LINE
  5
4BD
100
AcDbEntity
  8
_____1
100
AcDbLine
 62
7
  6
CONTINUOUS
 10
436.6992701816
 20
491.454239786
 11
436.8270832241
 21
491.9529173575
  0
LINE
  5
4BE
100
AcDbEntity
  8
_____1
100
AcDbLine
 62
7
  6
CONTINUOUS
 10
438.3491264095
 20
493.197113592
 11
438.4772839616
 21
493.6957911635
  0
LINE
  5
4BF
100
AcDbEntity
  8
_____1
100
AcDbLine
 62
7
  6
CONTINUOUS
 10
432.3474255647
 20
472.9230711708
 11
432.5052109379
 21
473.4129637488
  0
LINE
  5
4C0
100
AcDbEntity
  8
_____1
100
AcDbLine
 62
7
  6
CONTINUOUS
 10
432.1486435552
 20
411.4551607587
 11
432.0218640413
 21
411.1251206112
  0
LINE
  5
4C1
100
AcDbEntity
  8
_____1
100
AcDbLine
 62
7
  6
CONTINUOUS
 10
433.0119844838
 20
410.7449543244
 11
433.1387639976
 21
411.0749944719
  0
LINE
  5
4C2
100
AcDbEntity
  8
_____1
100
AcDbLine
 62
7
  6
CONTINUOUS
 10
316.5663790441
 20
217.017933431
 11
316.2664834821
 21
216.5180500761
  0
LINE
  5
4C3
100
AcDbEntity
  8
_____1
100
AcDbLine
 62
7
  6
CONTINUOUS
 10
318.5164753435
 20
217.017933431
 11
318.6665092519
 21
217.2680473632
  0
LINE
  5
4C4
100
AcDbEntity
  8
_____1
100
AcDbLine
 62
7
  6
CONTINUOUS
 10
319.7164021011
 20
218.0180446504
 11
319.5663681927
 21
217.7679307181
  0
LINE
  5
4C5
100
AcDbEntity
  8
_____1
100
AcDbLine
 62
7
  6
CONTINUOUS
 10
319.8664360094
 20
216.5180500761
 11
319.7164021011
 21
216.2679361438
  0
LINE
  5
4C6
100
AcDbEntity
  8
_____1
100
AcDbLine
 62
7
  6
CONTINUOUS
 10
317.3163763313
 20
217.7679307181
 11
317.1665146777
 21
217.5181612954
  0
LINE
  5
4C7
100
AcDbEntity
  8
_____1
100
AcDbLine
 62
7
  6
CONTINUOUS
 10
316.1164495737
 20
218.2681585826
 11
316.2664834821
 21
218.5179280053
  0
LINE
  5
4C8
100
AcDbEntity
  8
_____1
100
AcDbLine
 62
7
  6
CONTINUOUS
 10
318.5164753435
 20
218.2681585826
 11
318.6665092519
 21
218.5179280053
  0
LINE
  5
4C9
100
AcDbEntity
  8
_____1
100
AcDbLine
 62
7
  6
CONTINUOUS
 10
318.3664414352
 20
216.7681640083
 11
318.5164753435
 21
217.017933431
  0
LINE
  5
4CA
100
AcDbEntity
  8
_____1
100
AcDbLine
 62
7
  6
CONTINUOUS
 10
319.7164021011
 20
216.2679361438
 11
319.5663681927
 21
216.0181667212
  0
LINE
  5
4CB
100
AcDbEntity
  8
_____1
100
AcDbLine
 62
7
  6
CONTINUOUS
 10
321.066362767
 20
218.2681585826
 11
321.2163966753
 21
218.5179280053
  0
LINE
  5
4CC
100
AcDbEntity
  8
_____1
100
AcDbLine
 62
7
  6
CONTINUOUS
 10
321.9663939625
 20
216.2679361438
 11
321.8163600541
 21
216.0181667212
  0
LINE
  5
4CD
100
AcDbEntity
  8
_____1
100
AcDbLine
 62
7
  6
CONTINUOUS
 10
236.3442300841
 20
277.719826862
 11
236.6229383089
 21
277.8059542491
  0
LINE
  5
4CE
100
AcDbEntity
  8
_____1
100
AcDbLine
 62
7
  6
CONTINUOUS
 10
239.9167941023
 20
274.514165513
 11
240.1955023271
 21
274.6002929001
  0
LINE
  5
4CF
100
AcDbEntity
  8
_____1
100
AcDbLine
 62
7
  6
CONTINUOUS
 10
238.8033392415
 20
273.4978623448
 11
239.0820474663
 21
273.583989732
  0
LINE
  5
4D0
100
AcDbEntity
  8
_____1
100
AcDbLine
 62
7
  6
CONTINUOUS
 10
236.9033690814
 20
276.5464273397
 11
236.6248331114
 21
276.4606444621
  0
LINE
  5
4D1
100
AcDbEntity
  8
_____1
100
AcDbLine
 62
7
  6
CONTINUOUS
 10
239.0820474663
 20
273.583989732
 11
239.3605834363
 21
273.6697726095
  0
LINE
  5
4D2
100
AcDbEntity
  8
_____1
100
AcDbLine
 62
7
  6
CONTINUOUS
 10
240.6430202306
 20
273.5268011469
 11
240.3644842607
 21
273.4410182693
  0
LINE
  5
4D3
100
AcDbEntity
  8
_____1
100
AcDbLine
 62
7
  6
CONTINUOUS
 10
239.7528075572
 20
272.3099934215
 11
239.1957356173
 21
272.1384276663
  0
LINE
  5
4D4
100
AcDbEntity
  8
_____1
100
AcDbLine
 62
7
  6
CONTINUOUS
 10
235.8443467292
 20
276.4888942451
 11
235.2871025345
 21
276.3173284899
  0
LINE
  5
4D5
100
AcDbEntity
  8
_____1
100
AcDbLine
 62
7
  6
CONTINUOUS
 10
285.6165024785
 20
215.3680772031
 11
284.1165079042
 21
215.0180555018
  0
LINE
  5
4D6
100
AcDbEntity
  8
_____1
100
AcDbLine
 62
7
  6
CONTINUOUS
 10
832.1200952781
 20
261.9998561628
 11
831.0400578435
 21
261.9998561628
  0
LINE
  5
4D7
100
AcDbEntity
  8
_____1
100
AcDbLine
 62
7
  6
CONTINUOUS
 10
831.0400578435
 20
263.7999185538
 11
831.714952049
 21
263.7999185538
  0
LINE
  5
4D8
100
AcDbEntity
  8
_____1
100
AcDbLine
 62
7
  6
CONTINUOUS
 10
831.0400578435
 20
265.5999809449
 11
832.1200952781
 21
265.5999809449
  0
LINE
  5
4D9
100
AcDbEntity
  8
_____1
100
AcDbLine
 62
7
  6
CONTINUOUS
 10
239.1957356173
 20
272.1384276663
 11
238.8054062988
 21
272.1525525578
  0
LINE
  5
4DA
100
AcDbEntity
  8
_____1
100
AcDbLine
 62
7
  6
CONTINUOUS
 10
240.3644842607
 20
273.4410182693
 11
239.9741549422
 21
273.4551431608
  0
LINE
  5
4DB
100
AcDbEntity
  8
_____1
100
AcDbLine
 62
7
  6
CONTINUOUS
 10
239.3605834363
 20
273.6697726095
 11
239.7509127547
 21
273.655647718
  0
LINE
  5
4DC
100
AcDbEntity
  8
_____1
100
AcDbLine
 62
7
  6
CONTINUOUS
 10
236.6248331114
 20
276.4606444621
 11
235.8443467292
 21
276.4888942451
  0
LINE
  5
4DD
100
AcDbEntity
  8
_____1
100
AcDbLine
 62
7
  6
CONTINUOUS
 10
240.1955023271
 20
274.6002929001
 11
240.5856593908
 21
274.5858234991
  0
LINE
  5
4DE
100
AcDbEntity
  8
_____1
100
AcDbLine
 62
7
  6
CONTINUOUS
 10
236.6229383089
 20
277.8059542491
 11
237.0130953726
 21
277.7914848481
  0
LINE
  5
4DF
100
AcDbEntity
  8
_____1
100
AcDbLine
 62
7
  6
CONTINUOUS
 10
400.6056938018
 20
273.7800156651
 11
400.3273300866
 21
273.8664875617
  0
LINE
  5
4E0
100
AcDbEntity
  8
_____1
100
AcDbLine
 62
7
  6
CONTINUOUS
 10
400.7240328317
 20
275.2248887116
 11
401.0022242921
 21
275.1384168149
  0
LINE
  5
4E1
100
AcDbEntity
  8
_____1
100
AcDbLine
 62
7
  6
CONTINUOUS
 10
396.3093152221
 20
272.9638725446
 11
396.5876789373
 21
272.8770561384
  0
LINE
  5
4E2
100
AcDbEntity
  8
_____1
100
AcDbLine
 62
7
  6
CONTINUOUS
 10
399.3165390712
 20
272.2955240205
 11
399.5949027864
 21
272.2087076142
  0
LINE
  5
4E3
100
AcDbEntity
  8
_____1
100
AcDbLine
 62
7
  6
CONTINUOUS
 10
400.884057517
 20
273.6931992588
 11
400.6056938018
 21
273.7800156651
  0
LINE
  5
4E4
100
AcDbEntity
  8
_____1
100
AcDbLine
 62
7
  6
CONTINUOUS
 10
401.0022242921
 20
275.1384168149
 11
401.2805880073
 21
275.0516004087
  0
LINE
  5
4E5
100
AcDbEntity
  8
_____1
100
AcDbLine
 62
7
  6
CONTINUOUS
 10
399.8922145268
 20
276.1581650785
 11
400.170578242
 21
276.0713486723
  0
LINE
  5
4E6
100
AcDbEntity
  8
_____1
100
AcDbLine
 62
7
  6
CONTINUOUS
 10
399.7194429882
 20
274.9992349573
 11
399.4412515277
 21
275.0860513635
  0
LINE
  5
4E7
100
AcDbEntity
  8
_____1
100
AcDbLine
 62
7
  6
CONTINUOUS
 10
209.5837618834
 20
413.7831840328
 11
210.2078409305
 21
413.3410060273
  0
LINE
  5
4E8
100
AcDbEntity
  8
_____1
100
AcDbLine
 62
7
  6
CONTINUOUS
 10
399.9528482073
 20
277.2168429211
 11
400.2856444312
 21
276.8437390801
  0
LINE
  5
4E9
100
AcDbEntity
  8
_____1
100
AcDbLine
 62
7
  6
CONTINUOUS
 10
401.0320243681
 20
277.5093315278
 11
400.6992281442
 21
277.8824353689
  0
LINE
  5
4EA
100
AcDbEntity
  8
_____1
100
AcDbLine
 62
7
  6
CONTINUOUS
 10
396.5876789373
 20
272.8770561384
 11
396.9204751612
 21
272.5036077878
  0
LINE
  5
4EB
100
AcDbEntity
  8
_____1
100
AcDbLine
 62
7
  6
CONTINUOUS
 10
399.4829371831
 20
272.1087998452
 11
399.3165390712
 21
272.2955240205
  0
LINE
  5
4EC
100
AcDbEntity
  8
_____1
100
AcDbLine
 62
7
  6
CONTINUOUS
 10
399.4412515277
 20
275.0860513635
 11
399.2748534158
 21
275.2727755388
  0
LINE
  5
4ED
100
AcDbEntity
  8
_____1
100
AcDbLine
 62
7
  6
CONTINUOUS
 10
401.2805880073
 20
275.0516004087
 11
401.4469861193
 21
274.8648762334
  0
LINE
  5
4EE
100
AcDbEntity
  8
_____1
100
AcDbLine
 62
7
  6
CONTINUOUS
 10
400.3273300866
 20
273.8664875617
 11
400.1611042294
 21
274.053211737
  0
LINE
  5
4EF
100
AcDbEntity
  8
_____1
100
AcDbLine
 62
7
  6
CONTINUOUS
 10
400.170578242
 20
276.0713486723
 11
400.3368040991
 21
275.884624497
  0
LINE
  5
4F0
100
AcDbEntity
  8
_____1
100
AcDbLine
 62
7
  6
CONTINUOUS
 10
496.0486191251
 20
120.0457302217
 11
495.898412962
 21
120.295844154
  0
LINE
  5
4F1
100
AcDbEntity
  8
_____1
100
AcDbLine
 62
7
  6
CONTINUOUS
 10
495.898412962
 20
121.5460693056
 11
495.7485513084
 21
121.7958387282
  0
LINE
  5
4F2
100
AcDbEntity
  8
_____1
100
AcDbLine
 62
7
  6
CONTINUOUS
 10
495.898412962
 20
120.295844154
 11
495.7485513084
 21
120.5459580862
  0
LINE
  5
4F3
100
AcDbEntity
  8
_____1
100
AcDbLine
 62
7
  6
CONTINUOUS
 10
396.9685342432
 20
270.872010566
 11
397.3557629757
 21
270.2122747805
  0
LINE
  5
4F4
100
AcDbEntity
  8
_____1
100
AcDbLine
 62
7
  6
CONTINUOUS
 10
285.3648382533
 20
457.2203259491
 11
285.5415716517
 21
456.9142292152
  0
LINE
  5
4F5
100
AcDbEntity
  8
_____1
100
AcDbLine
 62
7
  6
CONTINUOUS
 10
286.4600341081
 20
457.4446016652
 11
286.2833007097
 21
457.750698399
  0
LINE
  5
4F6
100
AcDbEntity
  8
_____1
100
AcDbLine
 62
7
  6
CONTINUOUS
 10
319.1164387223
 20
445.2260537624
 11
349.0386433047
 21
383.3292289623
  0
LINE
  5
4F7
100
AcDbEntity
  8
_____1
100
AcDbLine
 62
7
  6
CONTINUOUS
 10
368.1616793242
 20
345.3227633143
 11
368.3284219457
 21
344.969641027
  0
LINE
  5
4F8
100
AcDbEntity
  8
_____1
100
AcDbLine
 62
7
  6
CONTINUOUS
 10
370.9785616477
 20
340.7058185997
 11
370.8118190262
 21
341.058940887
  0
LINE
  5
4F9
100
AcDbEntity
  8
_____1
100
AcDbLine
 62
7
  6
CONTINUOUS
 10
361.632189851
 20
348.3566866534
 11
361.7987602177
 21
348.0035643661
  0
LINE
  5
4FA
100
AcDbEntity
  8
_____1
100
AcDbLine
 62
7
  6
CONTINUOUS
 10
288.4478542031
 20
455.203567052
 11
288.6116684934
 21
454.8492389813
  0
LINE
  5
4FB
100
AcDbEntity
  8
_____1
100
AcDbLine
 62
7
  6
CONTINUOUS
 10
341.6818141507
 20
417.7309189494
 11
342.49502894
 21
415.3848089239
  0
LINE
  5
4FC
100
AcDbEntity
  8
_____1
100
AcDbLine
 62
7
  6
CONTINUOUS
 10
367.2826632111
 20
354.9376803041
 11
367.3643119741
 21
354.6577662959
  0
LINE
  5
4FD
100
AcDbEntity
  8
_____1
100
AcDbLine
 62
7
  6
CONTINUOUS
 10
370.5644611704
 20
351.4903455067
 11
370.4828124074
 21
351.7702595149
  0
LINE
  5
4FE
100
AcDbEntity
  8
_____1
100
AcDbLine
 62
7
  6
CONTINUOUS
 10
375.3517658567
 20
350.2323688903
 11
375.4334146197
 21
349.9524548821
  0
LINE
  5
4FF
100
AcDbEntity
  8
_____1
100
AcDbLine
 62
7
  6
CONTINUOUS
 10
377.5280326747
 20
349.6604830398
 11
377.4463839117
 21
349.9403970479
  0
LINE
  5
500
100
AcDbEntity
  8
_____1
100
AcDbLine
 62
7
  6
CONTINUOUS
 10
374.2462347155
 20
353.1078178371
 11
374.3278834785
 21
352.8277315741
  0
LINE
  5
501
100
AcDbEntity
  8
_____1
100
AcDbLine
 62
7
  6
CONTINUOUS
 10
371.7800631124
 20
353.7558402978
 11
371.8615396206
 21
353.4759262897
  0
LINE
  5
502
100
AcDbEntity
  8
_____1
100
AcDbLine
 62
7
  6
CONTINUOUS
 10
349.7636636495
 20
454.3180052575
 11
349.6859767463
 21
454.6077377878
  0
LINE
  5
503
100
AcDbEntity
  8
_____1
100
AcDbLine
 62
7
  6
CONTINUOUS
 10
351.6178140397
 20
455.1253633845
 11
351.6955009429
 21
454.8356308542
  0
LINE
  5
504
100
AcDbEntity
  8
_____1
100
AcDbLine
 62
7
  6
CONTINUOUS
 10
344.7215941521
 20
419.9833223776
 11
344.6551038092
 21
420.2671982456
  0
LINE
  5
505
100
AcDbEntity
  8
_____1
100
AcDbLine
 62
7
  6
CONTINUOUS
 10
345.9149752282
 20
419.3995509477
 11
346.0477836591
 21
418.8316269569
  0
LINE
  5
506
100
AcDbEntity
  8
_____1
100
AcDbLine
 62
7
  6
CONTINUOUS
 10
345.9309949222
 20
420.4601235928
 11
345.9973130103
 21
420.1762477248
  0
LINE
  5
507
100
AcDbEntity
  8
_____1
100
AcDbLine
 62
7
  6
CONTINUOUS
 10
327.6199679085
 20
585.3000188424
 11
327.7550156516
 21
584.7000554636
  0
LINE
  5
508
100
AcDbEntity
  8
_____1
100
AcDbLine
 62
7
  6
CONTINUOUS
 10
395.6919541111
 20
272.0784830049
 11
395.6375216025
 21
272.3647704397
  0
LINE
  5
509
100
AcDbEntity
  8
_____1
100
AcDbLine
 62
7
  6
CONTINUOUS
 10
396.9204751612
 20
272.5036077878
 11
396.9749076699
 21
272.217320353
  0
LINE
  5
50A
100
AcDbEntity
  8
_____1
100
AcDbLine
 62
7
  6
CONTINUOUS
 10
396.8598414806
 20
271.4449299452
 11
396.9685342432
 21
270.872010566
  0
LINE
  5
50B
100
AcDbEntity
  8
_____1
100
AcDbLine
 62
7
  6
CONTINUOUS
 10
399.9730020159
 20
277.5699652084
 11
399.9528482073
 21
277.2168429211
  0
LINE
  5
50C
100
AcDbEntity
  8
_____1
100
AcDbLine
 62
7
  6
CONTINUOUS
 10
401.0116983047
 20
277.1562092406
 11
401.0320243681
 21
277.5093315278
  0
LINE
  5
50D
100
AcDbEntity
  8
_____1
100
AcDbLine
 62
7
  6
CONTINUOUS
 10
435.8948403858
 20
492.4224838721
 11
435.9193005638
 21
492.8122964263
  0
LINE
  5
50E
100
AcDbEntity
  8
_____1
100
AcDbLine
 62
7
  6
CONTINUOUS
 10
435.4865965708
 20
490.5368108583
 11
435.4617918833
 21
490.1471705589
  0
LINE
  5
50F
100
AcDbEntity
  8
_____1
100
AcDbLine
 62
7
  6
CONTINUOUS
 10
404.4118352939
 20
409.3600259393
 11
404.3930595235
 21
409.0692598804
  0
LINE
  5
510
100
AcDbEntity
  8
_____1
100
AcDbLine
 62
7
  6
CONTINUOUS
 10
431.6032849398
 20
473.9385130651
 11
431.6515162766
 21
474.3259140524
  0
LINE
  5
511
100
AcDbEntity
  8
_____1
100
AcDbLine
 62
7
  6
CONTINUOUS
 10
437.2549640834
 20
475.8002426653
 11
437.2067327466
 21
475.412841678
  0
LINE
  5
512
100
AcDbEntity
  8
_____1
100
AcDbLine
 62
7
  6
CONTINUOUS
 10
431.0810084643
 20
472.0810898342
 11
431.0324326179
 21
471.6936888469
  0
LINE
  5
513
100
AcDbEntity
  8
_____1
100
AcDbLine
 62
7
  6
CONTINUOUS
 10
433.3561495227
 20
475.5775172422
 11
433.4047253691
 21
475.9650904843
  0
LINE
  5
514
100
AcDbEntity
  8
_____1
100
AcDbLine
 62
7
  6
CONTINUOUS
 10
433.7488904081
 20
472.5220620563
 11
433.7003145617
 21
472.134661069
  0
LINE
  5
515
100
AcDbEntity
  8
_____1
100
AcDbLine
 62
7
  6
CONTINUOUS
 10
435.1093586152
 20
477.2166936741
 11
435.1579344615
 21
477.6042669162
  0
LINE
  5
516
100
AcDbEntity
  8
_____1
100
AcDbLine
 62
7
  6
CONTINUOUS
 10
435.5020995005
 20
474.1612384882
 11
435.4535236542
 21
473.7736652461
  0
LINE
  5
517
100
AcDbEntity
  8
_____1
100
AcDbLine
 62
7
  6
CONTINUOUS
 10
395.6375216025
 20
272.3647704397
 11
395.6950546971
 21
272.7509656436
  0
LINE
  5
518
100
AcDbEntity
  8
_____1
100
AcDbLine
 62
7
  6
CONTINUOUS
 10
396.9749076699
 20
272.217320353
 11
396.8598414806
 21
271.4449299452
  0
LINE
  5
519
100
AcDbEntity
  8
_____1
100
AcDbLine
 62
7
  6
CONTINUOUS
 10
399.2204209071
 20
275.5590629736
 11
399.2779540017
 21
275.9452581775
  0
LINE
  5
51A
100
AcDbEntity
  8
_____1
100
AcDbLine
 62
7
  6
CONTINUOUS
 10
400.0522392121
 20
274.6261311162
 11
400.1097723067
 21
275.0123263201
  0
LINE
  5
51B
100
AcDbEntity
  8
_____1
100
AcDbLine
 62
7
  6
CONTINUOUS
 10
400.3912366078
 20
275.5983370622
 11
400.3337035132
 21
275.2121418583
  0
LINE
  5
51C
100
AcDbEntity
  8
_____1
100
AcDbLine
 62
7
  6
CONTINUOUS
 10
401.5558511366
 20
274.2919568542
 11
401.498318042
 21
273.9057616503
  0
LINE
  5
51D
100
AcDbEntity
  8
_____1
100
AcDbLine
 62
7
  6
CONTINUOUS
 10
460.2151474544
 20
584.9999510256
 11
460.3501951974
 21
585.8999822211
  0
LINE
  5
51E
100
AcDbEntity
  8
_____1
100
AcDbLine
 62
7
  6
CONTINUOUS
 10
460.3501951974
 20
585.8999822211
 11
460.4848984309
 21
586.4999455999
  0
LINE
  5
51F
100
AcDbEntity
  8
_____1
100
AcDbLine
 62
7
  6
CONTINUOUS
 10
460.4848984309
 20
586.4999455999
 11
460.6199461739
 21
587.1000812334
  0
LINE
  5
520
100
AcDbEntity
  8
_____1
100
AcDbLine
 62
7
  6
CONTINUOUS
 10
427.8825818158
 20
413.6607108883
 11
427.9890352663
 21
414.036398551
  0
LINE
  5
521
100
AcDbEntity
  8
_____1
100
AcDbLine
 62
7
  6
CONTINUOUS
 10
429.6034070107
 20
414.0984102697
 11
429.4969535602
 21
413.7227226071
  0
LINE
  5
522
100
AcDbEntity
  8
_____1
100
AcDbLine
 62
7
  6
CONTINUOUS
 10
430.745456164
 20
414.6069063634
 11
430.6390027135
 21
414.2312187007
  0
LINE
  5
523
100
AcDbEntity
  8
_____1
100
AcDbLine
 62
7
  6
CONTINUOUS
 10
431.721451715
 20
412.4144475965
 11
431.6149982645
 21
412.0385876791
  0
LINE
  5
524
100
AcDbEntity
  8
_____1
100
AcDbLine
 62
7
  6
CONTINUOUS
 10
526.039897872
 20
586.4999455999
 11
526.174945615
 21
586.8000134167
  0
LINE
  5
525
100
AcDbEntity
  8
_____1
100
AcDbLine
 62
7
  6
CONTINUOUS
 10
527.1199353066
 20
586.2000500379
 11
526.9848875636
 21
585.8999822211
  0
LINE
  5
526
100
AcDbEntity
  8
_____1
100
AcDbLine
 62
7
  6
CONTINUOUS
 10
525.9048501289
 20
584.7000554636
 11
526.174945615
 21
585.3000188424
  0
LINE
  5
527
100
AcDbEntity
  8
_____1
100
AcDbLine
 62
7
  6
CONTINUOUS
 10
527.2549830496
 20
584.3999876469
 11
526.9848875636
 21
583.8000242681
  0
LINE
  5
528
100
AcDbEntity
  8
_____1
100
AcDbLine
 62
7
  6
CONTINUOUS
 10
406.4807873875
 20
287.3281981704
 11
405.7459485205
 21
285.9746201542
  0
LINE
  5
529
100
AcDbEntity
  8
_____1
100
AcDbLine
 62
7
  6
CONTINUOUS
 10
411.2975476402
 20
278.9545490839
 11
412.0492674751
 21
280.2991698518
  0
LINE
  5
52A
100
AcDbEntity
  8
_____1
100
AcDbLine
 62
7
  6
CONTINUOUS
 10
408.651369798
 20
277.1751572658
 11
407.8507296072
 21
275.8591307904
  0
LINE
  5
52B
100
AcDbEntity
  8
_____1
100
AcDbLine
 62
7
  6
CONTINUOUS
 10
662.0098929552
 20
583.8000242681
 11
661.7401419787
 21
583.4999564513
  0
LINE
  5
52C
100
AcDbEntity
  8
_____1
100
AcDbLine
 62
7
  6
CONTINUOUS
 10
661.4700464926
 20
586.8000134167
 11
661.7401419787
 21
587.1000812334
  0
LINE
  5
52D
100
AcDbEntity
  8
_____1
100
AcDbLine
 62
7
  6
CONTINUOUS
 10
395.6950546971
 20
272.7509656436
 11
395.9189859036
 21
272.9507811818
  0
LINE
  5
52E
100
AcDbEntity
  8
_____1
100
AcDbLine
 62
7
  6
CONTINUOUS
 10
399.2779540017
 20
275.9452581775
 11
399.5018852083
 21
276.1450737157
  0
LINE
  5
52F
100
AcDbEntity
  8
_____1
100
AcDbLine
 62
7
  6
CONTINUOUS
 10
400.1097723067
 20
275.0123263201
 11
400.3337035132
 21
275.2121418583
  0
LINE
  5
530
100
AcDbEntity
  8
_____1
100
AcDbLine
 62
7
  6
CONTINUOUS
 10
400.6385944636
 20
276.8234130167
 11
401.0116983047
 21
277.1562092406
  0
LINE
  5
531
100
AcDbEntity
  8
_____1
100
AcDbLine
 62
7
  6
CONTINUOUS
 10
400.3462781117
 20
277.9027614323
 11
399.9730020159
 21
277.5699652084
  0
LINE
  5
532
100
AcDbEntity
  8
_____1
100
AcDbLine
 62
7
  6
CONTINUOUS
 10
316.2664834821
 20
218.5179280053
 11
316.5663790441
 21
218.7680419375
  0
LINE
  5
533
100
AcDbEntity
  8
_____1
100
AcDbLine
 62
7
  6
CONTINUOUS
 10
318.6665092519
 20
218.5179280053
 11
318.9664048139
 21
218.7680419375
  0
LINE
  5
534
100
AcDbEntity
  8
_____1
100
AcDbLine
 62
7
  6
CONTINUOUS
 10
318.6665092519
 20
217.2680473632
 11
318.9664048139
 21
217.5181612954
  0
LINE
  5
535
100
AcDbEntity
  8
_____1
100
AcDbLine
 62
7
  6
CONTINUOUS
 10
319.5663681927
 20
216.0181667212
 11
319.2664726307
 21
215.7680527889
  0
LINE
  5
536
100
AcDbEntity
  8
_____1
100
AcDbLine
 62
7
  6
CONTINUOUS
 10
321.8163600541
 20
216.0181667212
 11
321.5164644921
 21
215.7680527889
  0
LINE
  5
537
100
AcDbEntity
  8
_____1
100
AcDbLine
 62
7
  6
CONTINUOUS
 10
317.1665146777
 20
217.5181612954
 11
316.5663790441
 21
217.017933431
  0
LINE
  5
538
100
AcDbEntity
  8
_____1
100
AcDbLine
 62
7
  6
CONTINUOUS
 10
321.2163966753
 20
218.5179280053
 11
321.5164644921
 21
218.7680419375
  0
LINE
  5
539
100
AcDbEntity
  8
_____1
100
AcDbLine
 62
7
  6
CONTINUOUS
 10
319.5663681927
 20
217.7679307181
 11
319.2664726307
 21
217.5181612954
  0
LINE
  5
53A
100
AcDbEntity
  8
_____1
100
AcDbLine
 62
7
  6
CONTINUOUS
 10
405.7459485205
 20
285.9746201542
 11
407.003925137
 21
286.8631102798
  0
LINE
  5
53B
100
AcDbEntity
  8
_____1
100
AcDbLine
 62
7
  6
CONTINUOUS
 10
137.0767320078
 20
138.663026224
 11
136.8267903304
 21
138.5131645704
  0
LINE
  5
53C
100
AcDbEntity
  8
_____1
100
AcDbLine
 62
7
  6
CONTINUOUS
 10
134.5766262142
 20
139.2631618575
 11
134.8267401464
 21
139.4130235112
  0
LINE
  5
53D
100
AcDbEntity
  8
_____1
100
AcDbLine
 62
7
  6
CONTINUOUS
 10
242.2773735288
 20
274.0756048577
 11
241.9244234964
 21
274.056312323
  0
LINE
  5
53E
100
AcDbEntity
  8
_____1
100
AcDbLine
 62
7
  6
CONTINUOUS
 10
241.9817843362
 20
272.9972899708
 11
242.3347343687
 21
273.016237996
  0
LINE
  5
53F
100
AcDbEntity
  8
_____1
100
AcDbLine
 62
7
  6
CONTINUOUS
 10
395.9189859036
 20
272.9507811818
 11
396.3093152221
 21
272.9638725446
  0
LINE
  5
540
100
AcDbEntity
  8
_____1
100
AcDbLine
 62
7
  6
CONTINUOUS
 10
401.2743868354
 20
273.7062906217
 11
400.884057517
 21
273.6931992588
  0
LINE
  5
541
100
AcDbEntity
  8
_____1
100
AcDbLine
 62
7
  6
CONTINUOUS
 10
400.1097723067
 20
275.0123263201
 11
399.7194429882
 21
274.9992349573
  0
LINE
  5
542
100
AcDbEntity
  8
_____1
100
AcDbLine
 62
7
  6
CONTINUOUS
 10
399.5018852083
 20
276.1450737157
 11
399.8922145268
 21
276.1581650785
  0
LINE
  5
543
100
AcDbEntity
  8
_____1
100
AcDbLine
 62
7
  6
CONTINUOUS
 10
400.3337035132
 20
275.2121418583
 11
400.7240328317
 21
275.2248887116
  0
LINE
  5
544
100
AcDbEntity
  8
_____1
100
AcDbLine
 62
7
  6
CONTINUOUS
 10
0.0
 20
296.9999592356
 11
14.9999457428
 21
296.9999592356
  0
LINE
  5
545
100
AcDbEntity
  8
_____1
100
AcDbLine
 62
7
  6
CONTINUOUS
 10
13.4773857931
 20
297.8264376426
 11
14.5405422598
 21
297.8264376426
  0
LINE
  5
546
100
AcDbEntity
  8
_____1
100
AcDbLine
 62
7
  6
CONTINUOUS
 10
11.705573185
 20
298.0014484932
 11
12.4142293263
 21
298.0014484932
  0
LINE
  5
547
100
AcDbEntity
  8
_____1
100
AcDbLine
 62
7
  6
CONTINUOUS
 10
491.3663898511
 20
298.0675943265
 11
488.3664007026
 21
298.0675943265
  0
LINE
  5
548
100
AcDbEntity
  8
_____1
100
AcDbLine
 62
7
  6
CONTINUOUS
 10
833.3000404818
 20
299.0000094196
 11
829.5001001615
 21
299.0000094196
  0
LINE
  5
549
100
AcDbEntity
  8
_____1
100
AcDbLine
 62
7
  6
CONTINUOUS
 10
498.3664793676
 20
300.3752915373
 11
497.3663681482
 21
300.3752915373
  0
LINE
  5
54A
100
AcDbEntity
  8
_____1
100
AcDbLine
 62
7
  6
CONTINUOUS
 10
489.3665119219
 20
300.6176540047
 11
490.3666231413
 21
300.6176540047
  0
LINE
  5
54B
100
AcDbEntity
  8
_____1
100
AcDbLine
 62
7
  6
CONTINUOUS
 10
400.2856444312
 20
276.8437390801
 11
400.6385944636
 21
276.8234130167
  0
LINE
  5
54C
100
AcDbEntity
  8
_____1
100
AcDbLine
 62
7
  6
CONTINUOUS
 10
400.6992281442
 20
277.8824353689
 11
400.3462781117
 21
277.9027614323
  0
LINE
  5
54D
100
AcDbEntity
  8
_____1
100
AcDbLine
 62
7
  6
CONTINUOUS
 10
228.304583005
 20
329.8761609418
 11
229.0545802921
 21
329.7261270335
  0
LINE
  5
54E
100
AcDbEntity
  8
_____1
100
AcDbLine
 62
7
  6
CONTINUOUS
 10
379.4963879802
 20
309.6093532212
 11
312.2493298916
 21
323.9032266443
  0
LINE
  5
54F
100
AcDbEntity
  8
_____1
100
AcDbLine
 62
7
  6
CONTINUOUS
 10
228.0546413275
 20
333.4761134691
 11
228.5545246824
 21
333.3260795608
  0
LINE
  5
550
100
AcDbEntity
  8
_____1
100
AcDbLine
 62
7
  6
CONTINUOUS
 10
227.0545301082
 20
334.5260063183
 11
226.5546467533
 21
334.6760402267
  0
LINE
  5
551
100
AcDbEntity
  8
_____1
100
AcDbLine
 62
7
  6
CONTINUOUS
 10
228.0546413275
 20
335.7261053306
 11
228.5545246824
 21
335.5760714222
  0
LINE
  5
552
100
AcDbEntity
  8
_____1
100
AcDbLine
 62
7
  6
CONTINUOUS
 10
376.7690781393
 20
306.7246025166
 11
311.7646049568
 21
329.1073878843
  0
LINE
  5
553
100
AcDbEntity
  8
_____1
100
AcDbLine
 62
7
  6
CONTINUOUS
 10
351.433673686
 20
348.9602673824
 11
352.6465195516
 21
348.0107990666
  0
LINE
  5
554
100
AcDbEntity
  8
_____1
100
AcDbLine
 62
7
  6
CONTINUOUS
 10
319.1164387223
 20
363.9760605644
 11
430.5880153003
 21
263.6066486971
  0
LINE
  5
555
100
AcDbEntity
  8
_____1
100
AcDbLine
 62
7
  6
CONTINUOUS
 10
298.4829005873
 20
409.4876667271
 11
297.3780584652
 21
410.5609862255
  0
LINE
  5
556
100
AcDbEntity
  8
_____1
100
AcDbLine
 62
7
  6
CONTINUOUS
 10
319.1164387223
 20
363.9760605644
 11
425.55197472
 21
258.2808755865
  0
LINE
  5
557
100
AcDbEntity
  8
_____1
100
AcDbLine
 62
7
  6
CONTINUOUS
 10
128.5630397899
 20
587.0425481388
 11
128.833135276
 21
586.7426525768
  0
LINE
  5
558
100
AcDbEntity
  8
_____1
100
AcDbLine
 62
7
  6
CONTINUOUS
 10
291.1388182866
 20
419.1056843028
 11
291.9391139678
 21
418.2116820244
  0
LINE
  5
559
100
AcDbEntity
  8
_____1
100
AcDbLine
 62
7
  6
CONTINUOUS
 10
289.93820251
 20
420.4468599752
 11
289.8381224861
 21
420.5586533237
  0
LINE
  5
55A
100
AcDbEntity
  8
_____1
100
AcDbLine
 62
7
  6
CONTINUOUS
 10
288.4960855399
 20
423.1822657905
 11
289.3964612449
 21
422.1764701636
  0
LINE
  5
55B
100
AcDbEntity
  8
_____1
100
AcDbLine
 62
7
  6
CONTINUOUS
 10
294.5549749698
 20
419.4126423105
 11
294.8884602127
 21
419.0400552338
  0
LINE
  5
55C
100
AcDbEntity
  8
_____1
100
AcDbLine
 62
7
  6
CONTINUOUS
 10
293.6740640542
 20
420.7715602247
 11
293.8742241019
 21
420.5479735277
  0
LINE
  5
55D
100
AcDbEntity
  8
_____1
100
AcDbLine
 62
7
  6
CONTINUOUS
 10
295.6336343662
 20
419.7070257197
 11
295.3001491232
 21
420.0796127965
  0
LINE
  5
55E
100
AcDbEntity
  8
_____1
100
AcDbLine
 62
7
  6
CONTINUOUS
 10
371.5533758294
 20
354.0738226111
 11
371.7800631124
 21
353.7558402978
  0
LINE
  5
55F
100
AcDbEntity
  8
_____1
100
AcDbLine
 62
7
  6
CONTINUOUS
 10
367.056148183
 20
355.2556626173
 11
367.2826632111
 21
354.9376803041
  0
LINE
  5
560
100
AcDbEntity
  8
_____1
100
AcDbLine
 62
7
  6
CONTINUOUS
 10
370.7909761985
 20
351.1723631935
 11
370.5644611704
 21
351.4903455067
  0
LINE
  5
561
100
AcDbEntity
  8
_____1
100
AcDbLine
 62
7
  6
CONTINUOUS
 10
374.0197196873
 20
353.4258001504
 11
374.2462347155
 21
353.1078178371
  0
LINE
  5
562
100
AcDbEntity
  8
_____1
100
AcDbLine
 62
7
  6
CONTINUOUS
 10
377.7545477029
 20
349.3425007265
 11
377.5280326747
 21
349.6604830398
  0
LINE
  5
563
100
AcDbEntity
  8
_____1
100
AcDbLine
 62
7
  6
CONTINUOUS
 10
378.5171195885
 20
352.2439601441
 11
378.7436346167
 21
351.9259778309
  0
LINE
  5
564
100
AcDbEntity
  8
_____1
100
AcDbLine
 62
7
  6
CONTINUOUS
 10
346.0477836591
 20
418.8316269569
 11
346.4624009008
 21
418.1889443942
  0
LINE
  5
565
100
AcDbEntity
  8
_____1
100
AcDbLine
 62
7
  6
CONTINUOUS
 10
499.6483993977
 20
121.0458414411
 11
499.7986055608
 21
120.7960720184
  0
LINE
  5
566
100
AcDbEntity
  8
_____1
100
AcDbLine
 62
7
  6
CONTINUOUS
 10
500.6984645016
 20
120.0457302217
 11
500.8486706647
 21
119.795960799
  0
LINE
  5
567
100
AcDbEntity
  8
_____1
100
AcDbLine
 62
7
  6
CONTINUOUS
 10
499.7986055608
 20
119.0459635119
 11
499.6483993977
 21
119.2960774441
  0
LINE
  5
568
100
AcDbEntity
  8
_____1
100
AcDbLine
 62
7
  6
CONTINUOUS
 10
500.8486706647
 20
121.2959553733
 11
500.6984645016
 21
121.5460693056
  0
LINE
  5
569
100
AcDbEntity
  8
_____1
100
AcDbLine
 62
7
  6
CONTINUOUS
 10
507.8983695562
 20
121.2959553733
 11
508.0485757193
 21
121.0458414411
  0
LINE
  5
56A
100
AcDbEntity
  8
_____1
100
AcDbLine
 62
7
  6
CONTINUOUS
 10
499.6483993977
 20
119.2960774441
 11
499.498537744
 21
119.5458468668
  0
LINE
  5
56B
100
AcDbEntity
  8
_____1
100
AcDbLine
 62
7
  6
CONTINUOUS
 10
507.7485079026
 20
121.5460693056
 11
507.8983695562
 21
121.2959553733
  0
LINE
  5
56C
100
AcDbEntity
  8
_____1
100
AcDbLine
 62
7
  6
CONTINUOUS
 10
514.1984156701
 20
119.0459635119
 11
514.0485540165
 21
119.2960774441
  0
LINE
  5
56D
100
AcDbEntity
  8
_____1
100
AcDbLine
 62
7
  6
CONTINUOUS
 10
522.298524175
 20
121.5460693056
 11
522.4483858286
 21
121.2959553733
  0
LINE
  5
56E
100
AcDbEntity
  8
_____1
100
AcDbLine
 62
7
  6
CONTINUOUS
 10
319.1164387223
 20
445.2260537624
 11
353.4914292194
 21
385.6868800577
  0
LINE
  5
56F
100
AcDbEntity
  8
_____1
100
AcDbLine
 62
7
  6
CONTINUOUS
 10
372.0933945467
 20
342.3932263684
 11
372.2601371682
 21
342.0401040812
  0
LINE
  5
570
100
AcDbEntity
  8
_____1
100
AcDbLine
 62
7
  6
CONTINUOUS
 10
378.7436346167
 20
351.9259778309
 11
378.8251111249
 21
351.6460638227
  0
LINE
  5
571
100
AcDbEntity
  8
_____1
100
AcDbLine
 62
7
  6
CONTINUOUS
 10
354.4727646683
 20
451.2317164671
 11
354.3434013329
 21
451.7145465993
  0
LINE
  5
572
100
AcDbEntity
  8
_____1
100
AcDbLine
 62
7
  6
CONTINUOUS
 10
353.3775688136
 20
451.4558199284
 11
353.506932149
 21
450.9728175413
  0
LINE
  5
573
100
AcDbEntity
  8
_____1
100
AcDbLine
 62
7
  6
CONTINUOUS
 10
352.7777776896
 20
454.6597587297
 11
352.5448892348
 21
455.5291285754
  0
LINE
  5
574
100
AcDbEntity
  8
_____1
100
AcDbLine
 62
7
  6
CONTINUOUS
 10
399.2748534158
 20
275.2727755388
 11
399.2204209071
 21
275.5590629736
  0
LINE
  5
575
100
AcDbEntity
  8
_____1
100
AcDbLine
 62
7
  6
CONTINUOUS
 10
400.3368040991
 20
275.884624497
 11
400.3912366078
 21
275.5983370622
  0
LINE
  5
576
100
AcDbEntity
  8
_____1
100
AcDbLine
 62
7
  6
CONTINUOUS
 10
400.1611042294
 20
274.053211737
 11
400.0522392121
 21
274.6261311162
  0
LINE
  5
577
100
AcDbEntity
  8
_____1
100
AcDbLine
 62
7
  6
CONTINUOUS
 10
401.4469861193
 20
274.8648762334
 11
401.5558511366
 21
274.2919568542
  0
LINE
  5
578
100
AcDbEntity
  8
_____1
100
AcDbLine
 62
7
  6
CONTINUOUS
 10
428.5998506958
 20
582.5000174868
 11
428.5998506958
 21
586.4999455999
  0
LINE
  5
579
100
AcDbEntity
  8
_____1
100
AcDbLine
 62
7
  6
CONTINUOUS
 10
441.4224960919
 20
494.6252779254
 11
441.398035914
 21
494.2354653712
  0
LINE
  5
57A
100
AcDbEntity
  8
_____1
100
AcDbLine
 62
7
  6
CONTINUOUS
 10
437.5446966137
 20
494.1653576781
 11
437.5695013012
 21
494.5551702323
  0
LINE
  5
57B
100
AcDbEntity
  8
_____1
100
AcDbLine
 62
7
  6
CONTINUOUS
 10
438.1227836361
 20
491.1395303134
 11
438.0979789486
 21
490.7497177593
  0
LINE
  5
57C
100
AcDbEntity
  8
_____1
100
AcDbLine
 62
7
  6
CONTINUOUS
 10
439.1945528416
 20
495.9082314841
 11
439.2193575291
 21
496.2980440383
  0
LINE
  5
57D
100
AcDbEntity
  8
_____1
100
AcDbLine
 62
7
  6
CONTINUOUS
 10
439.772639864
 20
492.8824041194
 11
439.7478351765
 21
492.49276382
  0
LINE
  5
57E
100
AcDbEntity
  8
_____1
100
AcDbLine
 62
7
  6
CONTINUOUS
 10
460.0800997114
 20
583.4999564513
 11
460.2151474544
 21
584.9999510256
  0
LINE
  5
57F
100
AcDbEntity
  8
_____1
100
AcDbLine
 62
7
  6
CONTINUOUS
 10
399.5949027864
 20
272.2087076142
 11
399.4829371831
 21
272.1087998452
  0
LINE
  5
580
100
AcDbEntity
  8
_____1
100
AcDbLine
 62
7
  6
CONTINUOUS
 10
397.3557629757
 20
270.2122747805
 11
398.2514878019
 21
271.010847914
  0
LINE
  5
581
100
AcDbEntity
  8
_____1
100
AcDbLine
 62
7
  6
CONTINUOUS
 10
401.498318042
 20
273.9057616503
 11
401.2743868354
 21
273.7062906217
  0
LINE
  5
582
100
AcDbEntity
  8
_____1
100
AcDbLine
 62
7
  6
CONTINUOUS
 10
412.0492674751
 20
280.2991698518
 11
410.7800942983
 21
279.4261826558
  0
LINE
  5
583
100
AcDbEntity
  8
_____1
100
AcDbLine
 62
7
  6
CONTINUOUS
 10
407.8507296072
 20
275.8591307904
 11
409.1510808981
 21
276.6845756687
  0
LINE
  5
584
100
AcDbEntity
  8
_____1
100
AcDbLine
 62
7
  6
CONTINUOUS
 10
137.0767320078
 20
106.3886826991
 11
136.8267903304
 21
106.2384765359
  0
LINE
  5
585
100
AcDbEntity
  8
_____1
100
AcDbLine
 62
7
  6
CONTINUOUS
 10
491.1162759189
 20
306.7676662102
 11
490.8665064962
 21
306.6176323018
  0
LINE
  5
586
100
AcDbEntity
  8
_____1
100
AcDbLine
 62
7
  6
CONTINUOUS
 10
134.5766262142
 20
106.9884738231
 11
134.8267401464
 21
107.1386799862
  0
LINE
  5
587
100
AcDbEntity
  8
_____1
100
AcDbLine
 62
7
  6
CONTINUOUS
 10
134.5766262142
 20
104.7384819617
 11
134.8267401464
 21
104.8886881248
  0
LINE
  5
588
100
AcDbEntity
  8
_____1
100
AcDbLine
 62
7
  6
CONTINUOUS
 10
489.6162813446
 20
307.6676974057
 11
489.8663952768
 21
307.8177313141
  0
LINE
  5
589
100
AcDbEntity
  8
_____1
100
AcDbLine
 62
7
  6
CONTINUOUS
 10
488.6165146348
 20
302.8676458661
 11
488.866628567
 21
303.0176797745
  0
LINE
  5
58A
100
AcDbEntity
  8
_____1
100
AcDbLine
 62
7
  6
CONTINUOUS
 10
488.6165146348
 20
300.3175861879
 11
488.866628567
 21
300.4676200963
  0
LINE
  5
58B
100
AcDbEntity
  8
_____1
100
AcDbLine
 62
7
  6
CONTINUOUS
 10
137.0767320078
 20
108.7885362141
 11
136.8267903304
 21
108.6386745605
  0
LINE
  5
58C
100
AcDbEntity
  8
_____1
100
AcDbLine
 62
7
  6
CONTINUOUS
 10
145.116379087
 20
97.0407606094
 11
144.8664374095
 21
96.8908989558
  0
LINE
  5
58D
100
AcDbEntity
  8
_____1
100
AcDbLine
 62
7
  6
CONTINUOUS
 10
142.6164455481
 20
92.9910508665
 11
142.8663872256
 21
93.1409125201
  0
LINE
  5
58E
100
AcDbEntity
  8
_____1
100
AcDbLine
 62
7
  6
CONTINUOUS
 10
134.5766262142
 20
109.3886718477
 11
134.8267401464
 21
109.5385335013
  0
LINE
  5
58F
100
AcDbEntity
  8
_____1
100
AcDbLine
 62
7
  6
CONTINUOUS
 10
143.6163845127
 20
97.9409640597
 11
143.8664984449
 21
98.0908257133
  0
LINE
  5
590
100
AcDbEntity
  8
_____1
100
AcDbLine
 62
7
  6
CONTINUOUS
 10
491.1162759189
 20
304.6677082572
 11
491.3663898511
 21
304.8175699108
  0
LINE
  5
591
100
AcDbEntity
  8
_____1
100
AcDbLine
 62
7
  6
CONTINUOUS
 10
145.116379087
 20
94.9409749112
 11
145.3664930192
 21
95.0908365648
  0
LINE
  5
592
100
AcDbEntity
  8
_____1
100
AcDbLine
 62
7
  6
CONTINUOUS
 10
488.866628567
 20
300.4676200963
 11
489.3665119219
 21
300.6176540047
  0
LINE
  5
593
100
AcDbEntity
  8
_____1
100
AcDbLine
 62
7
  6
CONTINUOUS
 10
496.8664847933
 20
301.4253566412
 11
497.3663681482
 21
301.5753905496
  0
LINE
  5
594
100
AcDbEntity
  8
_____1
100
AcDbLine
 62
7
  6
CONTINUOUS
 10
498.8663627225
 20
300.5253254457
 11
498.3664793676
 21
300.3752915373
  0
LINE
  5
595
100
AcDbEntity
  8
_____1
100
AcDbLine
 62
7
  6
CONTINUOUS
 10
497.8665960127
 20
299.1753647798
 11
498.3664793676
 21
299.3253986882
  0
LINE
  5
596
100
AcDbEntity
  8
_____1
100
AcDbLine
 62
7
  6
CONTINUOUS
 10
489.8663952768
 20
299.5675889008
 11
489.3665119219
 21
299.4177272472
  0
LINE
  5
597
100
AcDbEntity
  8
_____1
100
AcDbLine
 62
7
  6
CONTINUOUS
 10
489.8663952768
 20
307.8177313141
 11
490.3666231413
 21
307.9675929677
  0
LINE
  5
598
100
AcDbEntity
  8
_____1
100
AcDbLine
 62
7
  6
CONTINUOUS
 10
354.1165417952
 20
301.4761717996
 11
284.1165079042
 21
301.4761717996
  0
LINE
  5
599
100
AcDbEntity
  8
_____1
100
AcDbLine
 62
7
  6
CONTINUOUS
 10
283.1163966849
 20
301.4761717996
 11
228.8046386147
 21
301.4761717996
  0
LINE
  5
59A
100
AcDbEntity
  8
_____1
100
AcDbLine
 62
7
  6
CONTINUOUS
 10
497.3663681482
 20
301.5753905496
 11
498.3664793676
 21
301.5753905496
  0
LINE
  5
59B
100
AcDbEntity
  8
_____1
100
AcDbLine
 62
7
  6
CONTINUOUS
 10
488.866628567
 20
303.0176797745
 11
489.3665119219
 21
303.0176797745
  0
LINE
  5
59C
100
AcDbEntity
  8
_____1
100
AcDbLine
 62
7
  6
CONTINUOUS
 10
499.366590587
 20
303.825382411
 11
496.3666014384
 21
303.825382411
  0
LINE
  5
59D
100
AcDbEntity
  8
_____1
100
AcDbLine
 62
7
  6
CONTINUOUS
 10
491.3663898511
 20
304.6677082572
 11
491.1162759189
 21
304.6677082572
  0
LINE
  5
59E
100
AcDbEntity
  8
_____1
100
AcDbLine
 62
7
  6
CONTINUOUS
 10
337.7414861894
 20
323.9760904138
 11
300.4913912552
 21
323.9760904138
  0
LINE
  5
59F
100
AcDbEntity
  8
_____1
100
AcDbLine
 62
7
  6
CONTINUOUS
 10
496.3666014384
 20
298.2753335843
 11
497.6164820805
 21
298.1252996759
  0
LINE
  5
5A0
100
AcDbEntity
  8
_____1
100
AcDbLine
 62
7
  6
CONTINUOUS
 10
226.0545911436
 20
332.4260483652
 11
227.3046440404
 21
332.2760144569
  0
LINE
  5
5A1
100
AcDbEntity
  8
_____1
100
AcDbLine
 62
7
  6
CONTINUOUS
 10
488.3664007026
 20
306.9177001186
 11
489.6162813446
 21
306.7676662102
  0
LINE
  5
5A2
100
AcDbEntity
  8
_____1
100
AcDbLine
 62
7
  6
CONTINUOUS
 10
490.616392564
 20
301.9676146706
 11
491.3663898511
 21
301.8175807622
  0
LINE
  5
5A3
100
AcDbEntity
  8
_____1
100
AcDbLine
 62
7
  6
CONTINUOUS
 10
489.3665119219
 20
299.4177272472
 11
488.866628567
 21
299.5675889008
  0
LINE
  5
5A4
100
AcDbEntity
  8
_____1
100
AcDbLine
 62
7
  6
CONTINUOUS
 10
490.3666231413
 20
307.9675929677
 11
490.8665064962
 21
307.8177313141
  0
LINE
  5
5A5
100
AcDbEntity
  8
_____1
100
AcDbLine
 62
7
  6
CONTINUOUS
 10
489.3665119219
 20
300.6176540047
 11
489.8663952768
 21
300.4676200963
  0
LINE
  5
5A6
100
AcDbEntity
  8
_____1
100
AcDbLine
 62
7
  6
CONTINUOUS
 10
490.3666231413
 20
300.6176540047
 11
490.8665064962
 21
300.4676200963
  0
LINE
  5
5A7
100
AcDbEntity
  8
_____1
100
AcDbLine
 62
7
  6
CONTINUOUS
 10
498.3664793676
 20
299.3253986882
 11
498.8663627225
 21
299.1753647798
  0
LINE
  5
5A8
100
AcDbEntity
  8
_____1
100
AcDbLine
 62
7
  6
CONTINUOUS
 10
497.3663681482
 20
300.3752915373
 11
496.8664847933
 21
300.5253254457
  0
LINE
  5
5A9
100
AcDbEntity
  8
_____1
100
AcDbLine
 62
7
  6
CONTINUOUS
 10
498.3664793676
 20
301.5753905496
 11
498.8663627225
 21
301.4253566412
  0
LINE
  5
5AA
100
AcDbEntity
  8
_____1
100
AcDbLine
 62
7
  6
CONTINUOUS
 10
207.4359171031
 20
413.2615965764
 11
207.6643269338
 21
413.1599662596
  0
LINE
  5
5AB
100
AcDbEntity
  8
_____1
100
AcDbLine
 62
7
  6
CONTINUOUS
 10
208.8671820224
 20
412.7885849662
 11
209.0955918531
 21
412.6869546494
  0
LINE
  5
5AC
100
AcDbEntity
  8
_____1
100
AcDbLine
 62
7
  6
CONTINUOUS
 10
208.4120849088
 20
415.4540553432
 11
208.8689045702
 21
415.2507947096
  0
LINE
  5
5AD
100
AcDbEntity
  8
_____1
100
AcDbLine
 62
7
  6
CONTINUOUS
 10
205.7590168756
 20
410.7242837515
 11
208.4995903342
 21
409.5040309306
  0
LINE
  5
5AE
100
AcDbEntity
  8
_____1
100
AcDbLine
 62
7
  6
CONTINUOUS
 10
207.7425306013
 20
416.4090358117
 11
208.1993502626
 21
416.2056029233
  0
LINE
  5
5AF
100
AcDbEntity
  8
_____1
100
AcDbLine
 62
7
  6
CONTINUOUS
 10
208.6060437847
 20
417.1190699912
 11
208.1493963781
 21
417.3225028796
  0
LINE
  5
5B0
100
AcDbEntity
  8
_____1
100
AcDbLine
 62
7
  6
CONTINUOUS
 10
360.9519557474
 20
348.6726019094
 11
361.632189851
 21
348.3566866534
  0
LINE
  5
5B1
100
AcDbEntity
  8
_____1
100
AcDbLine
 62
7
  6
CONTINUOUS
 10
351.433673686
 20
348.9602673824
 11
371.8868610724
 21
339.4567992315
  0
LINE
  5
5B2
100
AcDbEntity
  8
_____1
100
AcDbLine
 62
7
  6
CONTINUOUS
 10
371.250724191
 20
340.5793835954
 11
370.9785616477
 21
340.7058185997
  0
LINE
  5
5B3
100
AcDbEntity
  8
_____1
100
AcDbLine
 62
7
  6
CONTINUOUS
 10
366.2174396871
 20
342.9180866656
 11
367.3057453509
 21
342.4125189031
  0
LINE
  5
5B4
100
AcDbEntity
  8
_____1
100
AcDbLine
 62
7
  6
CONTINUOUS
 10
372.9229735396
 20
343.1104952484
 11
372.1066581644
 21
343.4898002613
  0
LINE
  5
5B5
100
AcDbEntity
  8
_____1
100
AcDbLine
 62
7
  6
CONTINUOUS
 10
364.3569158703
 20
344.6096285488
 11
365.581130551
 21
344.0406710294
  0
LINE
  5
5B6
100
AcDbEntity
  8
_____1
100
AcDbLine
 62
7
  6
CONTINUOUS
 10
361.0001870842
 20
346.9962184462
 11
360.3199529807
 21
347.312305957
  0
LINE
  5
5B7
100
AcDbEntity
  8
_____1
100
AcDbLine
 62
7
  6
CONTINUOUS
 10
371.8214042582
 20
342.5196613727
 11
372.0933945467
 21
342.3932263684
  0
LINE
  5
5B8
100
AcDbEntity
  8
_____1
100
AcDbLine
 62
7
  6
CONTINUOUS
 10
367.8896890356
 20
345.4491983186
 11
368.1616793242
 21
345.3227633143
  0
LINE
  5
5B9
100
AcDbEntity
  8
_____1
100
AcDbLine
 62
7
  6
CONTINUOUS
 10
368.9380315918
 20
341.6539088773
 11
368.8021225749
 21
341.7171263794
  0
LINE
  5
5BA
100
AcDbEntity
  8
_____1
100
AcDbLine
 62
7
  6
CONTINUOUS
 10
488.3664007026
 20
298.0675943265
 11
490.616392564
 21
297.0177014774
  0
LINE
  5
5BB
100
AcDbEntity
  8
_____1
100
AcDbLine
 62
7
  6
CONTINUOUS
 10
358.4384140814
 20
353.6428411659
 11
359.8002603267
 21
352.9231607191
  0
LINE
  5
5BC
100
AcDbEntity
  8
_____1
100
AcDbLine
 62
7
  6
CONTINUOUS
 10
301.1556056647
 20
408.0724215017
 11
302.3712076067
 21
407.1263982815
  0
LINE
  5
5BD
100
AcDbEntity
  8
_____1
100
AcDbLine
 62
7
  6
CONTINUOUS
 10
371.2357380257
 20
352.8649386054
 11
371.6074638285
 21
352.5087157322
  0
LINE
  5
5BE
100
AcDbEntity
  8
_____1
100
AcDbLine
 62
7
  6
CONTINUOUS
 10
378.19930953
 20
351.0350761384
 11
378.5710353329
 21
350.6788532652
  0
LINE
  5
5BF
100
AcDbEntity
  8
_____1
100
AcDbLine
 62
7
  6
CONTINUOUS
 10
304.6384249455
 20
420.14937598
 11
303.5420233074
 21
421.2313082172
  0
LINE
  5
5C0
100
AcDbEntity
  8
_____1
100
AcDbLine
 62
7
  6
CONTINUOUS
 10
343.7709200529
 20
415.5777342711
 11
341.6818141507
 21
417.7309189494
  0
LINE
  5
5C1
100
AcDbEntity
  8
_____1
100
AcDbLine
 62
7
  6
CONTINUOUS
 10
345.0628308599
 20
416.8310600086
 11
344.8886812831
 21
417.0105494834
  0
LINE
  5
5C2
100
AcDbEntity
  8
_____1
100
AcDbLine
 62
7
  6
CONTINUOUS
 10
345.5828680234
 20
420.8189302876
 11
345.9309949222
 21
420.4601235928
  0
LINE
  5
5C3
100
AcDbEntity
  8
_____1
100
AcDbLine
 62
7
  6
CONTINUOUS
 10
345.3170789067
 20
421.9544337595
 11
345.6652058055
 21
421.5956270647
  0
LINE
  5
5C4
100
AcDbEntity
  8
_____1
100
AcDbLine
 62
7
  6
CONTINUOUS
 10
287.6628891967
 20
453.2398626254
 11
287.8654608113
 21
453.0304008199
  0
LINE
  5
5C5
100
AcDbEntity
  8
_____1
100
AcDbLine
 62
7
  6
CONTINUOUS
 10
286.0803845856
 20
455.061629118
 11
285.8778129711
 21
455.2710909235
  0
LINE
  5
5C6
100
AcDbEntity
  8
_____1
100
AcDbLine
 62
7
  6
CONTINUOUS
 10
288.2451103338
 20
455.413373367
 11
288.4478542031
 21
455.203567052
  0
LINE
  5
5C7
100
AcDbEntity
  8
_____1
100
AcDbLine
 62
7
  6
CONTINUOUS
 10
193.9450954376
 20
583.4999564513
 11
193.6749999516
 21
583.8000242681
  0
LINE
  5
5C8
100
AcDbEntity
  8
_____1
100
AcDbLine
 62
7
  6
CONTINUOUS
 10
194.2150186689
 20
585.5999144044
 11
194.4849419002
 21
585.3000188424
  0
LINE
  5
5C9
100
AcDbEntity
  8
_____1
100
AcDbLine
 62
7
  6
CONTINUOUS
 10
194.2150186689
 20
587.1000812334
 11
194.4849419002
 21
586.8000134167
  0
LINE
  5
5CA
100
AcDbEntity
  8
_____1
100
AcDbLine
 62
7
  6
CONTINUOUS
 10
397.1748954628
 20
405.0662311813
 11
395.8001301094
 21
407.7327350869
  0
LINE
  5
5CB
100
AcDbEntity
  8
_____1
100
AcDbLine
 62
7
  6
CONTINUOUS
 10
399.2288613911
 20
408.9380017424
 11
399.343410816
 21
408.7157930836
  0
LINE
  5
5CC
100
AcDbEntity
  8
_____1
100
AcDbLine
 62
7
  6
CONTINUOUS
 10
400.0496553904
 20
407.6736516993
 11
400.1642048153
 21
407.4514430405
  0
LINE
  5
5CD
100
AcDbEntity
  8
_____1
100
AcDbLine
 62
7
  6
CONTINUOUS
 10
397.0958305214
 20
407.8383272635
 11
397.3249293712
 21
407.3937376911
  0
LINE
  5
5CE
100
AcDbEntity
  8
_____1
100
AcDbLine
 62
7
  6
CONTINUOUS
 10
326.6749782169
 20
583.8000242681
 11
326.5399304739
 21
584.0999198301
  0
LINE
  5
5CF
100
AcDbEntity
  8
_____1
100
AcDbLine
 62
7
  6
CONTINUOUS
 10
402.4662176186
 20
411.1697345977
 11
402.9056395477
 21
409.9899616488
  0
LINE
  5
5D0
100
AcDbEntity
  8
_____1
100
AcDbLine
 62
7
  6
CONTINUOUS
 10
401.2308063776
 20
408.0012802799
 11
401.4411294569
 21
407.2659246486
  0
LINE
  5
5D1
100
AcDbEntity
  8
_____1
100
AcDbLine
 62
7
  6
CONTINUOUS
 10
497.8483370066
 20
121.7958387282
 11
498.5983342938
 21
118.7958495797
  0
LINE
  5
5D2
100
AcDbEntity
  8
_____1
100
AcDbLine
 62
7
  6
CONTINUOUS
 10
404.3158893846
 20
409.8733451666
 11
404.4118352939
 21
409.3600259393
  0
LINE
  5
5D3
100
AcDbEntity
  8
_____1
100
AcDbLine
 62
7
  6
CONTINUOUS
 10
469.1165851692
 20
78.738690844
 11
469.1165851692
 21
81.6887261081
  0
LINE
  5
5D4
100
AcDbEntity
  8
_____1
100
AcDbLine
 62
7
  6
CONTINUOUS
 10
469.1165851692
 20
81.6887261081
 11
469.1165851692
 21
131.6887749237
  0
LINE
  5
5D5
100
AcDbEntity
  8
_____1
100
AcDbLine
 62
7
  6
CONTINUOUS
 10
469.1165851692
 20
131.6887749237
 11
469.1165851692
 21
134.1885362078
  0
LINE
  5
5D6
100
AcDbEntity
  8
_____1
100
AcDbLine
 62
7
  6
CONTINUOUS
 10
492.1163871383
 20
363.9760605644
 11
491.766365437
 21
362.4760659901
  0
LINE
  5
5D7
100
AcDbEntity
  8
_____1
100
AcDbLine
 62
7
  6
CONTINUOUS
 10
500.1165878741
 20
363.9760605644
 11
499.7665661728
 21
362.4760659901
  0
LINE
  5
5D8
100
AcDbEntity
  8
_____1
100
AcDbLine
 62
7
  6
CONTINUOUS
 10
592.6749347477
 20
586.4999455999
 11
592.8099824907
 21
586.8000134167
  0
LINE
  5
5D9
100
AcDbEntity
  8
_____1
100
AcDbLine
 62
7
  6
CONTINUOUS
 10
593.4848766962
 20
584.0999198301
 11
593.3498289532
 21
583.8000242681
  0
LINE
  5
5DA
100
AcDbEntity
  8
_____1
100
AcDbLine
 62
7
  6
CONTINUOUS
 10
490.1165092091
 20
300.017690626
 11
489.8663952768
 21
299.5675889008
  0
LINE
  5
5DB
100
AcDbEntity
  8
_____1
100
AcDbLine
 62
7
  6
CONTINUOUS
 10
489.3665119219
 20
307.367629589
 11
489.6162813446
 21
307.6676974057
  0
LINE
  5
5DC
100
AcDbEntity
  8
_____1
100
AcDbLine
 62
7
  6
CONTINUOUS
 10
496.3666014384
 20
300.9752549161
 11
496.6163708611
 21
301.2753227328
  0
LINE
  5
5DD
100
AcDbEntity
  8
_____1
100
AcDbLine
 62
7
  6
CONTINUOUS
 10
488.3664007026
 20
302.5675780494
 11
488.6165146348
 21
302.8676458661
  0
LINE
  5
5DE
100
AcDbEntity
  8
_____1
100
AcDbLine
 62
7
  6
CONTINUOUS
 10
491.3663898511
 20
300.017690626
 11
491.1162759189
 21
299.7176228092
  0
LINE
  5
5DF
100
AcDbEntity
  8
_____1
100
AcDbLine
 62
7
  6
CONTINUOUS
 10
497.3663681482
 20
298.7252630547
 11
497.6164820805
 21
299.0253308714
  0
LINE
  5
5E0
100
AcDbEntity
  8
_____1
100
AcDbLine
 62
7
  6
CONTINUOUS
 10
499.366590587
 20
298.4253674927
 11
499.1164766547
 21
298.1252996759
  0
LINE
  5
5E1
100
AcDbEntity
  8
_____1
100
AcDbLine
 62
7
  6
CONTINUOUS
 10
491.3663898511
 20
307.0675617722
 11
491.1162759189
 21
306.7676662102
  0
LINE
  5
5E2
100
AcDbEntity
  8
_____1
100
AcDbLine
 62
7
  6
CONTINUOUS
 10
488.3664007026
 20
300.017690626
 11
488.6165146348
 21
300.3175861879
  0
LINE
  5
5E3
100
AcDbEntity
  8
_____1
100
AcDbLine
 62
7
  6
CONTINUOUS
 10
499.366590587
 20
300.9752549161
 11
499.1164766547
 21
300.6753593541
  0
LINE
  5
5E4
100
AcDbEntity
  8
_____1
100
AcDbLine
 62
7
  6
CONTINUOUS
 10
137.0767320078
 20
72.565424244
 11
137.3266736853
 21
72.7156304072
  0
LINE
  5
5E5
100
AcDbEntity
  8
_____1
100
AcDbLine
 62
7
  6
CONTINUOUS
 10
491.1162759189
 20
299.7176228092
 11
490.8665064962
 21
299.5675889008
  0
LINE
  5
5E6
100
AcDbEntity
  8
_____1
100
AcDbLine
 62
7
  6
CONTINUOUS
 10
134.5766262142
 20
75.5654133926
 11
134.8267401464
 21
75.7156195557
  0
LINE
  5
5E7
100
AcDbEntity
  8
_____1
100
AcDbLine
 62
7
  6
CONTINUOUS
 10
135.826679111
 20
75.5654133926
 11
136.0767930432
 21
75.7156195557
  0
LINE
  5
5E8
100
AcDbEntity
  8
_____1
100
AcDbLine
 62
7
  6
CONTINUOUS
 10
136.8267903304
 20
74.5156927982
 11
136.5766763981
 21
74.3654866351
  0
LINE
  5
5E9
100
AcDbEntity
  8
_____1
100
AcDbLine
 62
7
  6
CONTINUOUS
 10
496.6163708611
 20
301.2753227328
 11
496.8664847933
 21
301.4253566412
  0
LINE
  5
5EA
100
AcDbEntity
  8
_____1
100
AcDbLine
 62
7
  6
CONTINUOUS
 10
499.1164766547
 20
300.6753593541
 11
498.8663627225
 21
300.5253254457
  0
LINE
  5
5EB
100
AcDbEntity
  8
_____1
100
AcDbLine
 62
7
  6
CONTINUOUS
 10
497.6164820805
 20
299.0253308714
 11
497.8665960127
 21
299.1753647798
  0
LINE
  5
5EC
100
AcDbEntity
  8
_____1
100
AcDbLine
 62
7
  6
CONTINUOUS
 10
499.1164766547
 20
298.1252996759
 11
498.8663627225
 21
297.9752657675
  0
LINE
  5
5ED
100
AcDbEntity
  8
_____1
100
AcDbLine
 62
7
  6
CONTINUOUS
 10
145.116379087
 20
92.390915233
 11
144.8664374095
 21
92.2410535794
  0
LINE
  5
5EE
100
AcDbEntity
  8
_____1
100
AcDbLine
 62
7
  6
CONTINUOUS
 10
136.0767930432
 20
75.7156195557
 11
136.3267347207
 21
75.8654812093
  0
LINE
  5
5EF
100
AcDbEntity
  8
_____1
100
AcDbLine
 62
7
  6
CONTINUOUS
 10
137.0767320078
 20
74.6655544518
 11
136.8267903304
 21
74.5156927982
  0
LINE
  5
5F0
100
AcDbEntity
  8
_____1
100
AcDbLine
 62
7
  6
CONTINUOUS
 10
135.3267957561
 20
74.6655544518
 11
135.0766818239
 21
74.5156927982
  0
LINE
  5
5F1
100
AcDbEntity
  8
_____1
100
AcDbLine
 62
7
  6
CONTINUOUS
 10
371.6279621467
 20
340.6798081288
 11
371.250724191
 21
340.5793835954
  0
LINE
  5
5F2
100
AcDbEntity
  8
_____1
100
AcDbLine
 62
7
  6
CONTINUOUS
 10
367.5296765574
 20
343.9624673619
 11
367.152266347
 21
343.8620428285
  0
LINE
  5
5F3
100
AcDbEntity
  8
_____1
100
AcDbLine
 62
7
  6
CONTINUOUS
 10
367.5122788252
 20
345.3487737852
 11
367.8896890356
 21
345.4491983186
  0
LINE
  5
5F4
100
AcDbEntity
  8
_____1
100
AcDbLine
 62
7
  6
CONTINUOUS
 10
371.4439940478
 20
342.4194090941
 11
371.8214042582
 21
342.5196613727
  0
LINE
  5
5F5
100
AcDbEntity
  8
_____1
100
AcDbLine
 62
7
  6
CONTINUOUS
 10
367.9070867678
 20
344.0627196405
 11
367.5296765574
 21
343.9624673619
  0
LINE
  5
5F6
100
AcDbEntity
  8
_____1
100
AcDbLine
 62
7
  6
CONTINUOUS
 10
258.7364894644
 20
309.6093532212
 11
325.9835475531
 21
323.9032266443
  0
LINE
  5
5F7
100
AcDbEntity
  8
_____1
100
AcDbLine
 62
7
  6
CONTINUOUS
 10
226.5546467533
 20
330.926053791
 11
227.0545301082
 21
330.926053791
  0
LINE
  5
5F8
100
AcDbEntity
  8
_____1
100
AcDbLine
 62
7
  6
CONTINUOUS
 10
831.579904306
 20
332.0000623085
 11
831.0400578435
 21
332.0000623085
  0
LINE
  5
5F9
100
AcDbEntity
  8
_____1
100
AcDbLine
 62
7
  6
CONTINUOUS
 10
228.0546413275
 20
334.5260063183
 11
227.0545301082
 21
334.5260063183
  0
LINE
  5
5FA
100
AcDbEntity
  8
_____1
100
AcDbLine
 62
7
  6
CONTINUOUS
 10
831.0400578435
 20
335.6000148358
 11
831.579904306
 21
335.6000148358
  0
LINE
  5
5FB
100
AcDbEntity
  8
_____1
100
AcDbLine
 62
7
  6
CONTINUOUS
 10
227.0545301082
 20
335.7261053306
 11
228.0546413275
 21
335.7261053306
  0
LINE
  5
5FC
100
AcDbEntity
  8
_____1
100
AcDbLine
 62
7
  6
CONTINUOUS
 10
359.9781995085
 20
353.6001219819
 11
358.4384140814
 21
353.6428411659
  0
LINE
  5
5FD
100
AcDbEntity
  8
_____1
100
AcDbLine
 62
7
  6
CONTINUOUS
 10
352.9414197251
 20
348.6455579098
 11
351.433673686
 21
348.9602673824
  0
LINE
  5
5FE
100
AcDbEntity
  8
_____1
100
AcDbLine
 62
7
  6
CONTINUOUS
 10
375.4334146197
 20
349.9524548821
 11
375.2883760998
 21
349.9905231872
  0
LINE
  5
5FF
100
AcDbEntity
  8
_____1
100
AcDbLine
 62
7
  6
CONTINUOUS
 10
373.7296426475
 20
353.5019367606
 11
374.0197196873
 21
353.4258001504
  0
LINE
  5
600
100
AcDbEntity
  8
_____1
100
AcDbLine
 62
7
  6
CONTINUOUS
 10
372.531955202
 20
350.714854513
 11
373.6924356162
 21
350.4099635626
  0
LINE
  5
601
100
AcDbEntity
  8
_____1
100
AcDbLine
 62
7
  6
CONTINUOUS
 10
358.4384140814
 20
353.6428411659
 11
378.7245143367
 21
348.3120726668
  0
LINE
  5
602
100
AcDbEntity
  8
_____1
100
AcDbLine
 62
7
  6
CONTINUOUS
 10
366.6749483675
 20
353.8049329085
 11
365.9495835131
 21
353.9956189436
  0
LINE
  5
603
100
AcDbEntity
  8
_____1
100
AcDbLine
 62
7
  6
CONTINUOUS
 10
366.3307833286
 20
355.4463486525
 11
367.056148183
 21
355.2556626173
  0
LINE
  5
604
100
AcDbEntity
  8
_____1
100
AcDbLine
 62
7
  6
CONTINUOUS
 10
496.3666014384
 20
303.825382411
 11
498.6165932998
 21
302.7753173071
  0
LINE
  5
605
100
AcDbEntity
  8
_____1
100
AcDbLine
 62
7
  6
CONTINUOUS
 10
488.866628567
 20
299.5675889008
 11
488.6165146348
 21
299.7176228092
  0
LINE
  5
606
100
AcDbEntity
  8
_____1
100
AcDbLine
 62
7
  6
CONTINUOUS
 10
488.866628567
 20
301.8175807622
 11
488.6165146348
 21
301.9676146706
  0
LINE
  5
607
100
AcDbEntity
  8
_____1
100
AcDbLine
 62
7
  6
CONTINUOUS
 10
498.8663627225
 20
299.1753647798
 11
499.1164766547
 21
299.0253308714
  0
LINE
  5
608
100
AcDbEntity
  8
_____1
100
AcDbLine
 62
7
  6
CONTINUOUS
 10
496.8664847933
 20
300.5253254457
 11
496.6163708611
 21
300.6753593541
  0
LINE
  5
609
100
AcDbEntity
  8
_____1
100
AcDbLine
 62
7
  6
CONTINUOUS
 10
498.8663627225
 20
301.4253566412
 11
499.1164766547
 21
301.2753227328
  0
LINE
  5
60A
100
AcDbEntity
  8
_____1
100
AcDbLine
 62
7
  6
CONTINUOUS
 10
490.1165092091
 20
302.2676824874
 11
490.616392564
 21
301.9676146706
  0
LINE
  5
60B
100
AcDbEntity
  8
_____1
100
AcDbLine
 62
7
  6
CONTINUOUS
 10
490.8665064962
 20
300.4676200963
 11
491.1162759189
 21
300.3175861879
  0
LINE
  5
60C
100
AcDbEntity
  8
_____1
100
AcDbLine
 62
7
  6
CONTINUOUS
 10
489.3665119219
 20
303.0176797745
 11
489.6162813446
 21
302.8676458661
  0
LINE
  5
60D
100
AcDbEntity
  8
_____1
100
AcDbLine
 62
7
  6
CONTINUOUS
 10
490.8665064962
 20
307.8177313141
 11
491.1162759189
 21
307.6676974057
  0
LINE
  5
60E
100
AcDbEntity
  8
_____1
100
AcDbLine
 62
7
  6
CONTINUOUS
 10
346.3829914499
 20
422.2918808623
 11
346.0348645511
 21
422.6508598119
  0
LINE
  5
60F
100
AcDbEntity
  8
_____1
100
AcDbLine
 62
7
  6
CONTINUOUS
 10
397.1540526351
 20
406.7431314087
 11
398.2413247702
 21
405.6162406755
  0
LINE
  5
610
100
AcDbEntity
  8
_____1
100
AcDbLine
 62
7
  6
CONTINUOUS
 10
491.1162759189
 20
300.3175861879
 11
491.3663898511
 21
300.017690626
  0
LINE
  5
611
100
AcDbEntity
  8
_____1
100
AcDbLine
 62
7
  6
CONTINUOUS
 10
489.8663952768
 20
302.5675780494
 11
490.1165092091
 21
302.2676824874
  0
LINE
  5
612
100
AcDbEntity
  8
_____1
100
AcDbLine
 62
7
  6
CONTINUOUS
 10
488.6165146348
 20
299.7176228092
 11
488.3664007026
 21
300.017690626
  0
LINE
  5
613
100
AcDbEntity
  8
_____1
100
AcDbLine
 62
7
  6
CONTINUOUS
 10
488.6165146348
 20
301.9676146706
 11
488.3664007026
 21
302.2676824874
  0
LINE
  5
614
100
AcDbEntity
  8
_____1
100
AcDbLine
 62
7
  6
CONTINUOUS
 10
489.6162813446
 20
302.8676458661
 11
489.8663952768
 21
302.5675780494
  0
LINE
  5
615
100
AcDbEntity
  8
_____1
100
AcDbLine
 62
7
  6
CONTINUOUS
 10
497.6164820805
 20
298.1252996759
 11
497.3663681482
 21
298.4253674927
  0
LINE
  5
616
100
AcDbEntity
  8
_____1
100
AcDbLine
 62
7
  6
CONTINUOUS
 10
491.1162759189
 20
307.6676974057
 11
491.3663898511
 21
307.367629589
  0
LINE
  5
617
100
AcDbEntity
  8
_____1
100
AcDbLine
 62
7
  6
CONTINUOUS
 10
499.1164766547
 20
299.0253308714
 11
499.366590587
 21
298.7252630547
  0
LINE
  5
618
100
AcDbEntity
  8
_____1
100
AcDbLine
 62
7
  6
CONTINUOUS
 10
489.6162813446
 20
306.7676662102
 11
489.3665119219
 21
307.0675617722
  0
LINE
  5
619
100
AcDbEntity
  8
_____1
100
AcDbLine
 62
7
  6
CONTINUOUS
 10
496.6163708611
 20
300.6753593541
 11
496.3666014384
 21
300.9752549161
  0
LINE
  5
61A
100
AcDbEntity
  8
_____1
100
AcDbLine
 62
7
  6
CONTINUOUS
 10
489.8663952768
 20
300.4676200963
 11
490.1165092091
 21
300.017690626
  0
LINE
  5
61B
100
AcDbEntity
  8
_____1
100
AcDbLine
 62
7
  6
CONTINUOUS
 10
401.3620645155
 20
410.037848476
 11
401.5911633653
 21
409.5934311585
  0
LINE
  5
61C
100
AcDbEntity
  8
_____1
100
AcDbLine
 62
7
  6
CONTINUOUS
 10
327.4849201655
 20
585.5999144044
 11
327.6199679085
 21
585.3000188424
  0
LINE
  5
61D
100
AcDbEntity
  8
_____1
100
AcDbLine
 62
7
  6
CONTINUOUS
 10
428.0048827055
 20
413.3866535425
 11
427.8825818158
 21
413.6607108883
  0
LINE
  5
61E
100
AcDbEntity
  8
_____1
100
AcDbLine
 62
7
  6
CONTINUOUS
 10
430.6231552743
 20
414.8809637092
 11
430.745456164
 21
414.6069063634
  0
LINE
  5
61F
100
AcDbEntity
  8
_____1
100
AcDbLine
 62
7
  6
CONTINUOUS
 10
431.5994953348
 20
412.6885049424
 11
431.721451715
 21
412.4144475965
  0
LINE
  5
620
100
AcDbEntity
  8
_____1
100
AcDbLine
 62
7
  6
CONTINUOUS
 10
428.675987306
 20
411.8794242677
 11
429.1638128267
 21
410.7830226295
  0
LINE
  5
621
100
AcDbEntity
  8
_____1
100
AcDbLine
 62
7
  6
CONTINUOUS
 10
432.0218640413
 20
411.1251206112
 11
432.2251246749
 21
410.6683009499
  0
LINE
  5
622
100
AcDbEntity
  8
_____1
100
AcDbLine
 62
7
  6
CONTINUOUS
 10
433.1387639976
 20
411.0749944719
 11
432.935503364
 21
411.5318141332
  0
LINE
  5
623
100
AcDbEntity
  8
_____1
100
AcDbLine
 62
7
  6
CONTINUOUS
 10
429.4814506305
 20
414.3726398704
 11
429.6034070107
 21
414.0984102697
  0
LINE
  5
624
100
AcDbEntity
  8
_____1
100
AcDbLine
 62
7
  6
CONTINUOUS
 10
528.4483641257
 20
121.7958387282
 11
529.6486353928
 21
118.7958495797
  0
LINE
  5
625
100
AcDbEntity
  8
_____1
100
AcDbLine
 62
7
  6
CONTINUOUS
 10
516.2985458779
 20
121.7958387282
 11
517.048543165
 21
119.2960774441
  0
LINE
  5
626
100
AcDbEntity
  8
_____1
100
AcDbLine
 62
7
  6
CONTINUOUS
 10
509.8486381104
 20
121.7958387282
 11
510.598290888
 21
118.7958495797
  0
LINE
  5
627
100
AcDbEntity
  8
_____1
100
AcDbLine
 62
7
  6
CONTINUOUS
 10
526.6486462442
 20
121.7958387282
 11
527.3986435313
 21
118.7958495797
  0
LINE
  5
628
100
AcDbEntity
  8
_____1
100
AcDbLine
 62
7
  6
CONTINUOUS
 10
491.766365437
 20
242.3593668014
 11
492.1163871383
 21
240.8593722271
  0
LINE
  5
629
100
AcDbEntity
  8
_____1
100
AcDbLine
 62
7
  6
CONTINUOUS
 10
393.1749673496
 20
584.0999198301
 11
393.0399196066
 21
584.7000554636
  0
LINE
  5
62A
100
AcDbEntity
  8
_____1
100
AcDbLine
 62
7
  6
CONTINUOUS
 10
393.9849092982
 20
585.3000188424
 11
394.1199570412
 21
584.7000554636
  0
LINE
  5
62B
100
AcDbEntity
  8
_____1
100
AcDbLine
 62
7
  6
CONTINUOUS
 10
431.0196857646
 20
472.3661714856
 11
431.0810084643
 21
472.0810898342
  0
LINE
  5
62C
100
AcDbEntity
  8
_____1
100
AcDbLine
 62
7
  6
CONTINUOUS
 10
433.6875677084
 20
472.8071437078
 11
433.7488904081
 21
472.5220620563
  0
LINE
  5
62D
100
AcDbEntity
  8
_____1
100
AcDbLine
 62
7
  6
CONTINUOUS
 10
433.4174722224
 20
475.2926078456
 11
433.3561495227
 21
475.5775172422
  0
LINE
  5
62E
100
AcDbEntity
  8
_____1
100
AcDbLine
 62
7
  6
CONTINUOUS
 10
435.4407768009
 20
474.4463201396
 11
435.5020995005
 21
474.1612384882
  0
LINE
  5
62F
100
AcDbEntity
  8
_____1
100
AcDbLine
 62
7
  6
CONTINUOUS
 10
435.1706813148
 20
476.9316120227
 11
435.1093586152
 21
477.2166936741
  0
LINE
  5
630
100
AcDbEntity
  8
_____1
100
AcDbLine
 62
7
  6
CONTINUOUS
 10
431.6642631299
 20
473.6534314137
 11
431.6032849398
 21
473.9385130651
  0
LINE
  5
631
100
AcDbEntity
  8
_____1
100
AcDbLine
 62
7
  6
CONTINUOUS
 10
437.1939858933
 20
476.0853243167
 11
437.2549640834
 21
475.8002426653
  0
LINE
  5
632
100
AcDbEntity
  8
_____1
100
AcDbLine
 62
7
  6
CONTINUOUS
 10
508.0485757193
 20
121.0458414411
 11
508.198437373
 21
120.295844154
  0
LINE
  5
633
100
AcDbEntity
  8
_____1
100
AcDbLine
 62
7
  6
CONTINUOUS
 10
488.3664007026
 20
307.8177313141
 11
488.3664007026
 21
306.9177001186
  0
LINE
  5
634
100
AcDbEntity
  8
_____1
100
AcDbLine
 62
7
  6
CONTINUOUS
 10
488.3664007026
 20
302.2676824874
 11
488.3664007026
 21
302.5675780494
  0
LINE
  5
635
100
AcDbEntity
  8
_____1
100
AcDbLine
 62
7
  6
CONTINUOUS
 10
489.3665119219
 20
307.0675617722
 11
489.3665119219
 21
307.367629589
  0
LINE
  5
636
100
AcDbEntity
  8
_____1
100
AcDbLine
 62
7
  6
CONTINUOUS
 10
490.616392564
 20
297.0177014774
 11
490.616392564
 21
298.3676621433
  0
LINE
  5
637
100
AcDbEntity
  8
_____1
100
AcDbLine
 62
7
  6
CONTINUOUS
 10
491.3663898511
 20
307.367629589
 11
491.3663898511
 21
307.0675617722
  0
LINE
  5
638
100
AcDbEntity
  8
_____1
100
AcDbLine
 62
7
  6
CONTINUOUS
 10
491.3663898511
 20
304.8175699108
 11
491.3663898511
 21
304.6677082572
  0
LINE
  5
639
100
AcDbEntity
  8
_____1
100
AcDbLine
 62
7
  6
CONTINUOUS
 10
491.3663898511
 20
301.8175807622
 11
491.3663898511
 21
303.0176797745
  0
LINE
  5
63A
100
AcDbEntity
  8
_____1
100
AcDbLine
 62
7
  6
CONTINUOUS
 10
492.1163871383
 20
240.8593722271
 11
492.1163871383
 21
363.9760605644
  0
LINE
  5
63B
100
AcDbEntity
  8
_____1
100
AcDbLine
 62
7
  6
CONTINUOUS
 10
494.6984862045
 20
121.7958387282
 11
494.6984862045
 21
118.7958495797
  0
LINE
  5
63C
100
AcDbEntity
  8
_____1
100
AcDbLine
 62
7
  6
CONTINUOUS
 10
495.6000676929
 20
586.4999455999
 11
495.6000676929
 21
582.5000174868
  0
LINE
  5
63D
100
AcDbEntity
  8
_____1
100
AcDbLine
 62
7
  6
CONTINUOUS
 10
495.898412962
 20
120.7960720184
 11
495.898412962
 21
121.5460693056
  0
LINE
  5
63E
100
AcDbEntity
  8
_____1
100
AcDbLine
 62
7
  6
CONTINUOUS
 10
496.0486191251
 20
119.2960774441
 11
496.0486191251
 21
120.0457302217
  0
LINE
  5
63F
100
AcDbEntity
  8
_____1
100
AcDbLine
 62
7
  6
CONTINUOUS
 10
496.3666014384
 20
299.1753647798
 11
496.3666014384
 21
298.2753335843
  0
LINE
  5
640
100
AcDbEntity
  8
_____1
100
AcDbLine
 62
7
  6
CONTINUOUS
 10
497.3663681482
 20
298.4253674927
 11
497.3663681482
 21
298.7252630547
  0
LINE
  5
641
100
AcDbEntity
  8
_____1
100
AcDbLine
 62
7
  6
CONTINUOUS
 10
498.6165932998
 20
302.7753173071
 11
498.6165932998
 21
304.125277973
  0
LINE
  5
642
100
AcDbEntity
  8
_____1
100
AcDbLine
 62
7
  6
CONTINUOUS
 10
499.366590587
 20
298.7252630547
 11
499.366590587
 21
298.4253674927
  0
LINE
  5
643
100
AcDbEntity
  8
_____1
100
AcDbLine
 62
7
  6
CONTINUOUS
 10
499.6483993977
 20
121.2959553733
 11
499.6483993977
 21
121.0458414411
  0
LINE
  5
644
100
AcDbEntity
  8
_____1
100
AcDbLine
 62
7
  6
CONTINUOUS
 10
500.1165878741
 20
237.9744492678
 11
500.1165878741
 21
363.9760605644
  0
LINE
  5
645
100
AcDbEntity
  8
_____1
100
AcDbLine
 62
7
  6
CONTINUOUS
 10
500.8486706647
 20
119.795960799
 11
500.8486706647
 21
119.2960774441
  0
LINE
  5
646
100
AcDbEntity
  8
_____1
100
AcDbLine
 62
7
  6
CONTINUOUS
 10
502.0485974222
 20
118.7958495797
 11
502.0485974222
 21
121.7958387282
  0
LINE
  5
647
100
AcDbEntity
  8
_____1
100
AcDbLine
 62
7
  6
CONTINUOUS
 10
506.8486489618
 20
118.7958495797
 11
506.8486489618
 21
121.7958387282
  0
LINE
  5
648
100
AcDbEntity
  8
_____1
100
AcDbLine
 62
7
  6
CONTINUOUS
 10
512.2484916254
 20
121.7958387282
 11
512.2484916254
 21
118.7958495797
  0
LINE
  5
649
100
AcDbEntity
  8
_____1
100
AcDbLine
 62
7
  6
CONTINUOUS
 10
477.5460448025
 20
88.0948811629
 11
477.3782686524
 21
86.5635362197
  0
LINE
  5
64A
100
AcDbEntity
  8
_____1
100
AcDbLine
 62
7
  6
CONTINUOUS
 10
500.1165878741
 20
237.9744492678
 11
500.4662650659
 21
239.474443842
  0
LINE
  5
64B
100
AcDbEntity
  8
_____1
100
AcDbLine
 62
7
  6
CONTINUOUS
 10
492.1163871383
 20
240.8593722271
 11
492.4664088396
 21
242.3593668014
  0
LINE
  5
64C
100
AcDbEntity
  8
_____1
100
AcDbLine
 62
7
  6
CONTINUOUS
 10
798.4132810504
 20
586.79363999
 11
798.6830320269
 21
587.0937078068
  0
LINE
  5
64D
100
AcDbEntity
  8
_____1
100
AcDbLine
 62
7
  6
CONTINUOUS
 10
799.2228784894
 20
585.5937132325
 11
798.9531275129
 21
585.2936454157
  0
LINE
  5
64E
100
AcDbEntity
  8
_____1
100
AcDbLine
 62
7
  6
CONTINUOUS
 10
798.9531275129
 20
585.2936454157
 11
798.6830320269
 21
584.9937498538
  0
LINE
  5
64F
100
AcDbEntity
  8
_____1
100
AcDbLine
 62
7
  6
CONTINUOUS
 10
136.8267903304
 20
138.5131645704
 11
136.3267347207
 21
138.3629584072
  0
LINE
  5
650
100
AcDbEntity
  8
_____1
100
AcDbLine
 62
7
  6
CONTINUOUS
 10
134.8267401464
 20
139.4130235112
 11
135.3267957561
 21
139.5628851648
  0
LINE
  5
651
100
AcDbEntity
  8
_____1
100
AcDbLine
 62
7
  6
CONTINUOUS
 10
361.3774250399
 20
347.0966429796
 11
361.0001870842
 21
346.9962184462
  0
LINE
  5
652
100
AcDbEntity
  8
_____1
100
AcDbLine
 62
7
  6
CONTINUOUS
 10
377.7006319585
 20
350.9076076054
 11
378.19930953
 21
351.0350761384
  0
LINE
  5
653
100
AcDbEntity
  8
_____1
100
AcDbLine
 62
7
  6
CONTINUOUS
 10
370.7370604542
 20
352.7374700724
 11
371.2357380257
 21
352.8649386054
  0
LINE
  5
654
100
AcDbEntity
  8
_____1
100
AcDbLine
 62
7
  6
CONTINUOUS
 10
300.425934441
 20
372.2367105189
 11
319.1164387223
 21
372.7260863326
  0
LINE
  5
655
100
AcDbEntity
  8
_____1
100
AcDbLine
 62
7
  6
CONTINUOUS
 10
318.1164997577
 20
363.9760605644
 11
316.0496147213
 21
363.9760605644
  0
LINE
  5
656
100
AcDbEntity
  8
_____1
100
AcDbLine
 62
7
  6
CONTINUOUS
 10
315.3829887449
 20
363.9760605644
 11
314.7163627685
 21
363.9760605644
  0
LINE
  5
657
100
AcDbEntity
  8
_____1
100
AcDbLine
 62
7
  6
CONTINUOUS
 10
314.0497367921
 20
363.9760605644
 11
311.982679501
 21
363.9760605644
  0
LINE
  5
658
100
AcDbEntity
  8
_____1
100
AcDbLine
 62
7
  6
CONTINUOUS
 10
311.3160535246
 20
363.9760605644
 11
310.6494275482
 21
363.9760605644
  0
LINE
  5
659
100
AcDbEntity
  8
_____1
100
AcDbLine
 62
7
  6
CONTINUOUS
 10
309.9828015718
 20
363.9760605644
 11
307.9159165354
 21
363.9760605644
  0
LINE
  5
65A
100
AcDbEntity
  8
_____1
100
AcDbLine
 62
7
  6
CONTINUOUS
 10
307.249290559
 20
363.9760605644
 11
306.5826645826
 21
363.9760605644
  0
LINE
  5
65B
100
AcDbEntity
  8
_____1
100
AcDbLine
 62
7
  6
CONTINUOUS
 10
305.9158663515
 20
363.9760605644
 11
303.8491535699
 21
363.9760605644
  0
LINE
  5
65C
100
AcDbEntity
  8
_____1
100
AcDbLine
 62
7
  6
CONTINUOUS
 10
303.1823553387
 20
363.9760605644
 11
302.5157293623
 21
363.9760605644
  0
LINE
  5
65D
100
AcDbEntity
  8
_____1
100
AcDbLine
 62
7
  6
CONTINUOUS
 10
301.8491033859
 20
363.9760605644
 11
299.7822183495
 21
363.9760605644
  0
LINE
  5
65E
100
AcDbEntity
  8
_____1
100
AcDbLine
 62
7
  6
CONTINUOUS
 10
299.1155923731
 20
363.9760605644
 11
298.4489663967
 21
363.9760605644
  0
LINE
  5
65F
100
AcDbEntity
  8
_____1
100
AcDbLine
 62
7
  6
CONTINUOUS
 10
297.7821681656
 20
363.9760605644
 11
295.7152831292
 21
363.9760605644
  0
LINE
  5
660
100
AcDbEntity
  8
_____1
100
AcDbLine
 62
7
  6
CONTINUOUS
 10
295.0486571528
 20
363.9760605644
 11
294.3820311764
 21
363.9760605644
  0
LINE
  5
661
100
AcDbEntity
  8
_____1
100
AcDbLine
 62
7
  6
CONTINUOUS
 10
293.7154052
 20
363.9760605644
 11
291.6485201636
 21
363.9760605644
  0
LINE
  5
662
100
AcDbEntity
  8
_____1
100
AcDbLine
 62
7
  6
CONTINUOUS
 10
290.9818941872
 20
363.9760605644
 11
290.3150959561
 21
363.9760605644
  0
LINE
  5
663
100
AcDbEntity
  8
_____1
100
AcDbLine
 62
7
  6
CONTINUOUS
 10
289.6484699797
 20
363.9760605644
 11
287.5815849433
 21
363.9760605644
  0
LINE
  5
664
100
AcDbEntity
  8
_____1
100
AcDbLine
 62
7
  6
CONTINUOUS
 10
286.9149589669
 20
363.9760605644
 11
286.2483329905
 21
363.9760605644
  0
LINE
  5
665
100
AcDbEntity
  8
_____1
100
AcDbLine
 62
7
  6
CONTINUOUS
 10
285.5817070141
 20
363.9760605644
 11
283.5148219777
 21
363.9760605644
  0
LINE
  5
666
100
AcDbEntity
  8
_____1
100
AcDbLine
 62
7
  6
CONTINUOUS
 10
282.8481960013
 20
363.9760605644
 11
282.1813977702
 21
363.9760605644
  0
LINE
  5
667
100
AcDbEntity
  8
_____1
100
AcDbLine
 62
7
  6
CONTINUOUS
 10
281.5147717938
 20
363.9760605644
 11
279.4478867574
 21
363.9760605644
  0
LINE
  5
668
100
AcDbEntity
  8
_____1
100
AcDbLine
 62
7
  6
CONTINUOUS
 10
278.781260781
 20
363.9760605644
 11
278.1146348046
 21
363.9760605644
  0
LINE
  5
669
100
AcDbEntity
  8
_____1
100
AcDbLine
 62
7
  6
CONTINUOUS
 10
277.4480088282
 20
363.9760605644
 11
275.3811237918
 21
363.9760605644
  0
LINE
  5
66A
100
AcDbEntity
  8
_____1
100
AcDbLine
 62
7
  6
CONTINUOUS
 10
274.7143255607
 20
363.9760605644
 11
274.0476995843
 21
363.9760605644
  0
LINE
  5
66B
100
AcDbEntity
  8
_____1
100
AcDbLine
 62
7
  6
CONTINUOUS
 10
273.3810736079
 20
363.9760605644
 11
271.3141885715
 21
363.9760605644
  0
LINE
  5
66C
100
AcDbEntity
  8
_____1
100
AcDbLine
 62
7
  6
CONTINUOUS
 10
270.6475625951
 20
363.9760605644
 11
269.9809366187
 21
363.9760605644
  0
LINE
  5
66D
100
AcDbEntity
  8
_____1
100
AcDbLine
 62
7
  6
CONTINUOUS
 10
269.3143106423
 20
363.9760605644
 11
267.2474256059
 21
363.9760605644
  0
LINE
  5
66E
100
AcDbEntity
  8
_____1
100
AcDbLine
 62
7
  6
CONTINUOUS
 10
266.5806273748
 20
363.9760605644
 11
265.9140013984
 21
363.9760605644
  0
LINE
  5
66F
100
AcDbEntity
  8
_____1
100
AcDbLine
 62
7
  6
CONTINUOUS
 10
265.247375422
 20
363.9760605644
 11
263.1804903856
 21
363.9760605644
  0
LINE
  5
670
100
AcDbEntity
  8
_____1
100
AcDbLine
 62
7
  6
CONTINUOUS
 10
262.5136921544
 20
363.9760605644
 11
261.847066178
 21
363.9760605644
  0
LINE
  5
671
100
AcDbEntity
  8
_____1
100
AcDbLine
 62
7
  6
CONTINUOUS
 10
261.1804402016
 20
363.9760605644
 11
259.1135551653
 21
363.9760605644
  0
LINE
  5
672
100
AcDbEntity
  8
_____1
100
AcDbLine
 62
7
  6
CONTINUOUS
 10
258.4469291889
 20
363.9760605644
 11
257.7801309577
 21
363.9760605644
  0
LINE
  5
673
100
AcDbEntity
  8
_____1
100
AcDbLine
 62
7
  6
CONTINUOUS
 10
257.1135049813
 20
363.9760605644
 11
255.0466199449
 21
363.9760605644
  0
LINE
  5
674
100
AcDbEntity
  8
_____1
100
AcDbLine
 62
7
  6
CONTINUOUS
 10
254.3799939685
 20
363.9760605644
 11
253.7131957374
 21
363.9760605644
  0
LINE
  5
675
100
AcDbEntity
  8
_____1
100
AcDbLine
 62
7
  6
CONTINUOUS
 10
253.046569761
 20
363.9760605644
 11
250.9796847246
 21
363.9760605644
  0
LINE
  5
676
100
AcDbEntity
  8
_____1
100
AcDbLine
 62
7
  6
CONTINUOUS
 10
250.3130587482
 20
363.9760605644
 11
249.646260517
 21
363.9760605644
  0
LINE
  5
677
100
AcDbEntity
  8
_____1
100
AcDbLine
 62
7
  6
CONTINUOUS
 10
248.9796345406
 20
363.9760605644
 11
246.9127495042
 21
363.9760605644
  0
LINE
  5
678
100
AcDbEntity
  8
_____1
100
AcDbLine
 62
7
  6
CONTINUOUS
 10
246.2461235278
 20
363.9760605644
 11
245.5793252967
 21
363.9760605644
  0
LINE
  5
679
100
AcDbEntity
  8
_____1
100
AcDbLine
 62
7
  6
CONTINUOUS
 10
244.9126993203
 20
363.9760605644
 11
242.8458142839
 21
363.9760605644
  0
LINE
  5
67A
100
AcDbEntity
  8
_____1
100
AcDbLine
 62
7
  6
CONTINUOUS
 10
242.1791883075
 20
363.9760605644
 11
241.5125623311
 21
363.9760605644
  0
LINE
  5
67B
100
AcDbEntity
  8
_____1
100
AcDbLine
 62
7
  6
CONTINUOUS
 10
240.8457640999
 20
363.9760605644
 11
238.7788790636
 21
363.9760605644
  0
LINE
  5
67C
100
AcDbEntity
  8
_____1
100
AcDbLine
 62
7
  6
CONTINUOUS
 10
238.1122530872
 20
363.9760605644
 11
237.4456271108
 21
363.9760605644
  0
LINE
  5
67D
100
AcDbEntity
  8
_____1
100
AcDbLine
 62
7
  6
CONTINUOUS
 10
236.7788288796
 20
363.9760605644
 11
234.7119438432
 21
363.9760605644
  0
LINE
  5
67E
100
AcDbEntity
  8
_____1
100
AcDbLine
 62
7
  6
CONTINUOUS
 10
234.0453178668
 20
363.9760605644
 11
233.3786918904
 21
363.9760605644
  0
LINE
  5
67F
100
AcDbEntity
  8
_____1
100
AcDbLine
 62
7
  6
CONTINUOUS
 10
232.712065914
 20
363.9760605644
 11
230.6450086229
 21
363.9760605644
  0
LINE
  5
680
100
AcDbEntity
  8
_____1
100
AcDbLine
 62
7
  6
CONTINUOUS
 10
229.9783826465
 20
363.9760605644
 11
229.3117566701
 21
363.9760605644
  0
LINE
  5
681
100
AcDbEntity
  8
_____1
100
AcDbLine
 62
7
  6
CONTINUOUS
 10
228.6451306937
 20
363.9760605644
 11
226.5780734026
 21
363.9760605644
  0
LINE
  5
682
100
AcDbEntity
  8
_____1
100
AcDbLine
 62
7
  6
CONTINUOUS
 10
225.9114474262
 20
363.9760605644
 11
225.2448214498
 21
363.9760605644
  0
LINE
  5
683
100
AcDbEntity
  8
_____1
100
AcDbLine
 62
7
  6
CONTINUOUS
 10
224.5781954734
 20
363.9760605644
 11
222.5111381822
 21
363.9760605644
  0
LINE
  5
684
100
AcDbEntity
  8
_____1
100
AcDbLine
 62
7
  6
CONTINUOUS
 10
221.8445122058
 20
363.9760605644
 11
221.1778862294
 21
363.9760605644
  0
LINE
  5
685
100
AcDbEntity
  8
_____1
100
AcDbLine
 62
7
  6
CONTINUOUS
 10
220.511260253
 20
363.9760605644
 11
218.4443752167
 21
363.9760605644
  0
LINE
  5
686
100
AcDbEntity
  8
_____1
100
AcDbLine
 62
7
  6
CONTINUOUS
 10
217.7775769855
 20
363.9760605644
 11
217.1109510091
 21
363.9760605644
  0
LINE
  5
687
100
AcDbEntity
  8
_____1
100
AcDbLine
 62
7
  6
CONTINUOUS
 10
216.4443250327
 20
363.9760605644
 11
214.3774399963
 21
363.9760605644
  0
LINE
  5
688
100
AcDbEntity
  8
_____1
100
AcDbLine
 62
7
  6
CONTINUOUS
 10
213.7106417651
 20
363.9760605644
 11
213.0440157888
 21
363.9760605644
  0
LINE
  5
689
100
AcDbEntity
  8
_____1
100
AcDbLine
 62
7
  6
CONTINUOUS
 10
212.3773898124
 20
363.9760605644
 11
210.310504776
 21
363.9760605644
  0
LINE
  5
68A
100
AcDbEntity
  8
_____1
100
AcDbLine
 62
7
  6
CONTINUOUS
 10
209.6437065448
 20
363.9760605644
 11
208.9770805684
 21
363.9760605644
  0
LINE
  5
68B
100
AcDbEntity
  8
_____1
100
AcDbLine
 62
7
  6
CONTINUOUS
 10
208.310454592
 20
363.9760605644
 11
206.2435695556
 21
363.9760605644
  0
LINE
  5
68C
100
AcDbEntity
  8
_____1
100
AcDbLine
 62
7
  6
CONTINUOUS
 10
205.5769435792
 20
363.9760605644
 11
204.9101453481
 21
363.9760605644
  0
LINE
  5
68D
100
AcDbEntity
  8
_____1
100
AcDbLine
 62
7
  6
CONTINUOUS
 10
204.2435193717
 20
363.9760605644
 11
202.1766343353
 21
363.9760605644
  0
LINE
  5
68E
100
AcDbEntity
  8
_____1
100
AcDbLine
 62
7
  6
CONTINUOUS
 10
201.5100083589
 20
363.9760605644
 11
200.8432101277
 21
363.9760605644
  0
LINE
  5
68F
100
AcDbEntity
  8
_____1
100
AcDbLine
 62
7
  6
CONTINUOUS
 10
200.1765841513
 20
363.9760605644
 11
198.109699115
 21
363.9760605644
  0
LINE
  5
690
100
AcDbEntity
  8
_____1
100
AcDbLine
 62
7
  6
CONTINUOUS
 10
197.4430731386
 20
363.9760605644
 11
196.7762749074
 21
363.9760605644
  0
LINE
  5
691
100
AcDbEntity
  8
_____1
100
AcDbLine
 62
7
  6
CONTINUOUS
 10
196.109648931
 20
363.9760605644
 11
194.0427638946
 21
363.9760605644
  0
LINE
  5
692
100
AcDbEntity
  8
_____1
100
AcDbLine
 62
7
  6
CONTINUOUS
 10
193.3761379182
 20
363.9760605644
 11
192.7095119418
 21
363.9760605644
  0
LINE
  5
693
100
AcDbEntity
  8
_____1
100
AcDbLine
 62
7
  6
CONTINUOUS
 10
192.0427137107
 20
363.9760605644
 11
189.9758286743
 21
363.9760605644
  0
LINE
  5
694
100
AcDbEntity
  8
_____1
100
AcDbLine
 62
7
  6
CONTINUOUS
 10
189.3092026979
 20
363.9760605644
 11
188.6425767215
 21
363.9760605644
  0
LINE
  5
695
100
AcDbEntity
  8
_____1
100
AcDbLine
 62
7
  6
CONTINUOUS
 10
187.9757784903
 20
363.9760605644
 11
185.908893454
 21
363.9760605644
  0
LINE
  5
696
100
AcDbEntity
  8
_____1
100
AcDbLine
 62
7
  6
CONTINUOUS
 10
185.2422674776
 20
363.9760605644
 11
184.5756415012
 21
363.9760605644
  0
LINE
  5
697
100
AcDbEntity
  8
_____1
100
AcDbLine
 62
7
  6
CONTINUOUS
 10
183.90884327
 20
363.9760605644
 11
181.8419582336
 21
363.9760605644
  0
LINE
  5
698
100
AcDbEntity
  8
_____1
100
AcDbLine
 62
7
  6
CONTINUOUS
 10
181.1753322572
 20
363.9760605644
 11
180.5087062808
 21
363.9760605644
  0
LINE
  5
699
100
AcDbEntity
  8
_____1
100
AcDbLine
 62
7
  6
CONTINUOUS
 10
179.8420803044
 20
363.9760605644
 11
177.7750230133
 21
363.9760605644
  0
LINE
  5
69A
100
AcDbEntity
  8
_____1
100
AcDbLine
 62
7
  6
CONTINUOUS
 10
177.1083970369
 20
363.9760605644
 11
176.4417710605
 21
363.9760605644
  0
LINE
  5
69B
100
AcDbEntity
  8
_____1
100
AcDbLine
 62
7
  6
CONTINUOUS
 10
175.7751450841
 20
363.9760605644
 11
173.7082600477
 21
363.9760605644
  0
LINE
  5
69C
100
AcDbEntity
  8
_____1
100
AcDbLine
 62
7
  6
CONTINUOUS
 10
173.0414618165
 20
363.9760605644
 11
172.3748358402
 21
363.9760605644
  0
LINE
  5
69D
100
AcDbEntity
  8
_____1
100
AcDbLine
 62
7
  6
CONTINUOUS
 10
171.7082098638
 20
363.9760605644
 11
169.6413248274
 21
363.9760605644
  0
LINE
  5
69E
100
AcDbEntity
  8
_____1
100
AcDbLine
 62
7
  6
CONTINUOUS
 10
469.1165851692
 20
363.9760605644
 11
468.590174579
 21
363.9760605644
  0
LINE
  5
69F
100
AcDbEntity
  8
_____1
100
AcDbLine
 62
7
  6
CONTINUOUS
 10
318.7831257341
 20
363.9760605644
 11
318.1164997577
 21
363.9760605644
  0
LINE
  5
6A0
100
AcDbEntity
  8
_____1
100
AcDbLine
 62
7
  6
CONTINUOUS
 10
316.0496147213
 20
363.9760605644
 11
315.3829887449
 21
363.9760605644
  0
LINE
  5
6A1
100
AcDbEntity
  8
_____1
100
AcDbLine
 62
7
  6
CONTINUOUS
 10
314.7163627685
 20
363.9760605644
 11
314.0497367921
 21
363.9760605644
  0
LINE
  5
6A2
100
AcDbEntity
  8
_____1
100
AcDbLine
 62
7
  6
CONTINUOUS
 10
311.982679501
 20
363.9760605644
 11
311.3160535246
 21
363.9760605644
  0
LINE
  5
6A3
100
AcDbEntity
  8
_____1
100
AcDbLine
 62
7
  6
CONTINUOUS
 10
310.6494275482
 20
363.9760605644
 11
309.9828015718
 21
363.9760605644
  0
LINE
  5
6A4
100
AcDbEntity
  8
_____1
100
AcDbLine
 62
7
  6
CONTINUOUS
 10
307.9159165354
 20
363.9760605644
 11
307.249290559
 21
363.9760605644
  0
LINE
  5
6A5
100
AcDbEntity
  8
_____1
100
AcDbLine
 62
7
  6
CONTINUOUS
 10
306.5826645826
 20
363.9760605644
 11
305.9158663515
 21
363.9760605644
  0
LINE
  5
6A6
100
AcDbEntity
  8
_____1
100
AcDbLine
 62
7
  6
CONTINUOUS
 10
303.8491535699
 20
363.9760605644
 11
303.1823553387
 21
363.9760605644
  0
LINE
  5
6A7
100
AcDbEntity
  8
_____1
100
AcDbLine
 62
7
  6
CONTINUOUS
 10
302.5157293623
 20
363.9760605644
 11
301.8491033859
 21
363.9760605644
  0
LINE
  5
6A8
100
AcDbEntity
  8
_____1
100
AcDbLine
 62
7
  6
CONTINUOUS
 10
299.7822183495
 20
363.9760605644
 11
299.1155923731
 21
363.9760605644
  0
LINE
  5
6A9
100
AcDbEntity
  8
_____1
100
AcDbLine
 62
7
  6
CONTINUOUS
 10
298.4489663967
 20
363.9760605644
 11
297.7821681656
 21
363.9760605644
  0
LINE
  5
6AA
100
AcDbEntity
  8
_____1
100
AcDbLine
 62
7
  6
CONTINUOUS
 10
295.7152831292
 20
363.9760605644
 11
295.0486571528
 21
363.9760605644
  0
LINE
  5
6AB
100
AcDbEntity
  8
_____1
100
AcDbLine
 62
7
  6
CONTINUOUS
 10
294.3820311764
 20
363.9760605644
 11
293.7154052
 21
363.9760605644
  0
LINE
  5
6AC
100
AcDbEntity
  8
_____1
100
AcDbLine
 62
7
  6
CONTINUOUS
 10
291.6485201636
 20
363.9760605644
 11
290.9818941872
 21
363.9760605644
  0
LINE
  5
6AD
100
AcDbEntity
  8
_____1
100
AcDbLine
 62
7
  6
CONTINUOUS
 10
290.3150959561
 20
363.9760605644
 11
289.6484699797
 21
363.9760605644
  0
LINE
  5
6AE
100
AcDbEntity
  8
_____1
100
AcDbLine
 62
7
  6
CONTINUOUS
 10
287.5815849433
 20
363.9760605644
 11
286.9149589669
 21
363.9760605644
  0
LINE
  5
6AF
100
AcDbEntity
  8
_____1
100
AcDbLine
 62
7
  6
CONTINUOUS
 10
286.2483329905
 20
363.9760605644
 11
285.5817070141
 21
363.9760605644
  0
LINE
  5
6B0
100
AcDbEntity
  8
_____1
100
AcDbLine
 62
7
  6
CONTINUOUS
 10
283.5148219777
 20
363.9760605644
 11
282.8481960013
 21
363.9760605644
  0
LINE
  5
6B1
100
AcDbEntity
  8
_____1
100
AcDbLine
 62
7
  6
CONTINUOUS
 10
282.1813977702
 20
363.9760605644
 11
281.5147717938
 21
363.9760605644
  0
LINE
  5
6B2
100
AcDbEntity
  8
_____1
100
AcDbLine
 62
7
  6
CONTINUOUS
 10
279.4478867574
 20
363.9760605644
 11
278.781260781
 21
363.9760605644
  0
LINE
  5
6B3
100
AcDbEntity
  8
_____1
100
AcDbLine
 62
7
  6
CONTINUOUS
 10
278.1146348046
 20
363.9760605644
 11
277.4480088282
 21
363.9760605644
  0
LINE
  5
6B4
100
AcDbEntity
  8
_____1
100
AcDbLine
 62
7
  6
CONTINUOUS
 10
275.3811237918
 20
363.9760605644
 11
274.7143255607
 21
363.9760605644
  0
LINE
  5
6B5
100
AcDbEntity
  8
_____1
100
AcDbLine
 62
7
  6
CONTINUOUS
 10
274.0476995843
 20
363.9760605644
 11
273.3810736079
 21
363.9760605644
  0
LINE
  5
6B6
100
AcDbEntity
  8
_____1
100
AcDbLine
 62
7
  6
CONTINUOUS
 10
271.3141885715
 20
363.9760605644
 11
270.6475625951
 21
363.9760605644
  0
LINE
  5
6B7
100
AcDbEntity
  8
_____1
100
AcDbLine
 62
7
  6
CONTINUOUS
 10
269.9809366187
 20
363.9760605644
 11
269.3143106423
 21
363.9760605644
  0
LINE
  5
6B8
100
AcDbEntity
  8
_____1
100
AcDbLine
 62
7
  6
CONTINUOUS
 10
267.2474256059
 20
363.9760605644
 11
266.5806273748
 21
363.9760605644
  0
LINE
  5
6B9
100
AcDbEntity
  8
_____1
100
AcDbLine
 62
7
  6
CONTINUOUS
 10
265.9140013984
 20
363.9760605644
 11
265.247375422
 21
363.9760605644
  0
LINE
  5
6BA
100
AcDbEntity
  8
_____1
100
AcDbLine
 62
7
  6
CONTINUOUS
 10
263.1804903856
 20
363.9760605644
 11
262.5136921544
 21
363.9760605644
  0
LINE
  5
6BB
100
AcDbEntity
  8
_____1
100
AcDbLine
 62
7
  6
CONTINUOUS
 10
261.847066178
 20
363.9760605644
 11
261.1804402016
 21
363.9760605644
  0
LINE
  5
6BC
100
AcDbEntity
  8
_____1
100
AcDbLine
 62
7
  6
CONTINUOUS
 10
259.1135551653
 20
363.9760605644
 11
258.4469291889
 21
363.9760605644
  0
LINE
  5
6BD
100
AcDbEntity
  8
_____1
100
AcDbLine
 62
7
  6
CONTINUOUS
 10
257.7801309577
 20
363.9760605644
 11
257.1135049813
 21
363.9760605644
  0
LINE
  5
6BE
100
AcDbEntity
  8
_____1
100
AcDbLine
 62
7
  6
CONTINUOUS
 10
255.0466199449
 20
363.9760605644
 11
254.3799939685
 21
363.9760605644
  0
LINE
  5
6BF
100
AcDbEntity
  8
_____1
100
AcDbLine
 62
7
  6
CONTINUOUS
 10
253.7131957374
 20
363.9760605644
 11
253.046569761
 21
363.9760605644
  0
LINE
  5
6C0
100
AcDbEntity
  8
_____1
100
AcDbLine
 62
7
  6
CONTINUOUS
 10
250.9796847246
 20
363.9760605644
 11
250.3130587482
 21
363.9760605644
  0
LINE
  5
6C1
100
AcDbEntity
  8
_____1
100
AcDbLine
 62
7
  6
CONTINUOUS
 10
249.646260517
 20
363.9760605644
 11
248.9796345406
 21
363.9760605644
  0
LINE
  5
6C2
100
AcDbEntity
  8
_____1
100
AcDbLine
 62
7
  6
CONTINUOUS
 10
246.9127495042
 20
363.9760605644
 11
246.2461235278
 21
363.9760605644
  0
LINE
  5
6C3
100
AcDbEntity
  8
_____1
100
AcDbLine
 62
7
  6
CONTINUOUS
 10
245.5793252967
 20
363.9760605644
 11
244.9126993203
 21
363.9760605644
  0
LINE
  5
6C4
100
AcDbEntity
  8
_____1
100
AcDbLine
 62
7
  6
CONTINUOUS
 10
242.8458142839
 20
363.9760605644
 11
242.1791883075
 21
363.9760605644
  0
LINE
  5
6C5
100
AcDbEntity
  8
_____1
100
AcDbLine
 62
7
  6
CONTINUOUS
 10
241.5125623311
 20
363.9760605644
 11
240.8457640999
 21
363.9760605644
  0
LINE
  5
6C6
100
AcDbEntity
  8
_____1
100
AcDbLine
 62
7
  6
CONTINUOUS
 10
238.7788790636
 20
363.9760605644
 11
238.1122530872
 21
363.9760605644
  0
LINE
  5
6C7
100
AcDbEntity
  8
_____1
100
AcDbLine
 62
7
  6
CONTINUOUS
 10
237.4456271108
 20
363.9760605644
 11
236.7788288796
 21
363.9760605644
  0
LINE
  5
6C8
100
AcDbEntity
  8
_____1
100
AcDbLine
 62
7
  6
CONTINUOUS
 10
234.7119438432
 20
363.9760605644
 11
234.0453178668
 21
363.9760605644
  0
LINE
  5
6C9
100
AcDbEntity
  8
_____1
100
AcDbLine
 62
7
  6
CONTINUOUS
 10
233.3786918904
 20
363.9760605644
 11
232.712065914
 21
363.9760605644
  0
LINE
  5
6CA
100
AcDbEntity
  8
_____1
100
AcDbLine
 62
7
  6
CONTINUOUS
 10
230.6450086229
 20
363.9760605644
 11
229.9783826465
 21
363.9760605644
  0
LINE
  5
6CB
100
AcDbEntity
  8
_____1
100
AcDbLine
 62
7
  6
CONTINUOUS
 10
229.3117566701
 20
363.9760605644
 11
228.6451306937
 21
363.9760605644
  0
LINE
  5
6CC
100
AcDbEntity
  8
_____1
100
AcDbLine
 62
7
  6
CONTINUOUS
 10
226.5780734026
 20
363.9760605644
 11
225.9114474262
 21
363.9760605644
  0
LINE
  5
6CD
100
AcDbEntity
  8
_____1
100
AcDbLine
 62
7
  6
CONTINUOUS
 10
225.2448214498
 20
363.9760605644
 11
224.5781954734
 21
363.9760605644
  0
LINE
  5
6CE
100
AcDbEntity
  8
_____1
100
AcDbLine
 62
7
  6
CONTINUOUS
 10
222.5111381822
 20
363.9760605644
 11
221.8445122058
 21
363.9760605644
  0
LINE
  5
6CF
100
AcDbEntity
  8
_____1
100
AcDbLine
 62
7
  6
CONTINUOUS
 10
221.1778862294
 20
363.9760605644
 11
220.511260253
 21
363.9760605644
  0
LINE
  5
6D0
100
AcDbEntity
  8
_____1
100
AcDbLine
 62
7
  6
CONTINUOUS
 10
218.4443752167
 20
363.9760605644
 11
217.7775769855
 21
363.9760605644
  0
LINE
  5
6D1
100
AcDbEntity
  8
_____1
100
AcDbLine
 62
7
  6
CONTINUOUS
 10
217.1109510091
 20
363.9760605644
 11
216.4443250327
 21
363.9760605644
  0
LINE
  5
6D2
100
AcDbEntity
  8
_____1
100
AcDbLine
 62
7
  6
CONTINUOUS
 10
214.3774399963
 20
363.9760605644
 11
213.7106417651
 21
363.9760605644
  0
LINE
  5
6D3
100
AcDbEntity
  8
_____1
100
AcDbLine
 62
7
  6
CONTINUOUS
 10
213.0440157888
 20
363.9760605644
 11
212.3773898124
 21
363.9760605644
  0
LINE
  5
6D4
100
AcDbEntity
  8
_____1
100
AcDbLine
 62
7
  6
CONTINUOUS
 10
210.310504776
 20
363.9760605644
 11
209.6437065448
 21
363.9760605644
  0
LINE
  5
6D5
100
AcDbEntity
  8
_____1
100
AcDbLine
 62
7
  6
CONTINUOUS
 10
208.9770805684
 20
363.9760605644
 11
208.310454592
 21
363.9760605644
  0
LINE
  5
6D6
100
AcDbEntity
  8
_____1
100
AcDbLine
 62
7
  6
CONTINUOUS
 10
206.2435695556
 20
363.9760605644
 11
205.5769435792
 21
363.9760605644
  0
LINE
  5
6D7
100
AcDbEntity
  8
_____1
100
AcDbLine
 62
7
  6
CONTINUOUS
 10
204.9101453481
 20
363.9760605644
 11
204.2435193717
 21
363.9760605644
  0
LINE
  5
6D8
100
AcDbEntity
  8
_____1
100
AcDbLine
 62
7
  6
CONTINUOUS
 10
202.1766343353
 20
363.9760605644
 11
201.5100083589
 21
363.9760605644
  0
LINE
  5
6D9
100
AcDbEntity
  8
_____1
100
AcDbLine
 62
7
  6
CONTINUOUS
 10
200.8432101277
 20
363.9760605644
 11
200.1765841513
 21
363.9760605644
  0
LINE
  5
6DA
100
AcDbEntity
  8
_____1
100
AcDbLine
 62
7
  6
CONTINUOUS
 10
198.109699115
 20
363.9760605644
 11
197.4430731386
 21
363.9760605644
  0
LINE
  5
6DB
100
AcDbEntity
  8
_____1
100
AcDbLine
 62
7
  6
CONTINUOUS
 10
196.7762749074
 20
363.9760605644
 11
196.109648931
 21
363.9760605644
  0
LINE
  5
6DC
100
AcDbEntity
  8
_____1
100
AcDbLine
 62
7
  6
CONTINUOUS
 10
194.0427638946
 20
363.9760605644
 11
193.3761379182
 21
363.9760605644
  0
LINE
  5
6DD
100
AcDbEntity
  8
_____1
100
AcDbLine
 62
7
  6
CONTINUOUS
 10
192.7095119418
 20
363.9760605644
 11
192.0427137107
 21
363.9760605644
  0
LINE
  5
6DE
100
AcDbEntity
  8
_____1
100
AcDbLine
 62
7
  6
CONTINUOUS
 10
189.9758286743
 20
363.9760605644
 11
189.3092026979
 21
363.9760605644
  0
LINE
  5
6DF
100
AcDbEntity
  8
_____1
100
AcDbLine
 62
7
  6
CONTINUOUS
 10
188.6425767215
 20
363.9760605644
 11
187.9757784903
 21
363.9760605644
  0
LINE
  5
6E0
100
AcDbEntity
  8
_____1
100
AcDbLine
 62
7
  6
CONTINUOUS
 10
185.908893454
 20
363.9760605644
 11
185.2422674776
 21
363.9760605644
  0
LINE
  5
6E1
100
AcDbEntity
  8
_____1
100
AcDbLine
 62
7
  6
CONTINUOUS
 10
184.5756415012
 20
363.9760605644
 11
183.90884327
 21
363.9760605644
  0
LINE
  5
6E2
100
AcDbEntity
  8
_____1
100
AcDbLine
 62
7
  6
CONTINUOUS
 10
181.8419582336
 20
363.9760605644
 11
181.1753322572
 21
363.9760605644
  0
LINE
  5
6E3
100
AcDbEntity
  8
_____1
100
AcDbLine
 62
7
  6
CONTINUOUS
 10
180.5087062808
 20
363.9760605644
 11
179.8420803044
 21
363.9760605644
  0
LINE
  5
6E4
100
AcDbEntity
  8
_____1
100
AcDbLine
 62
7
  6
CONTINUOUS
 10
177.7750230133
 20
363.9760605644
 11
177.1083970369
 21
363.9760605644
  0
LINE
  5
6E5
100
AcDbEntity
  8
_____1
100
AcDbLine
 62
7
  6
CONTINUOUS
 10
176.4417710605
 20
363.9760605644
 11
175.7751450841
 21
363.9760605644
  0
LINE
  5
6E6
100
AcDbEntity
  8
_____1
100
AcDbLine
 62
7
  6
CONTINUOUS
 10
173.7082600477
 20
363.9760605644
 11
173.0414618165
 21
363.9760605644
  0
LINE
  5
6E7
100
AcDbEntity
  8
_____1
100
AcDbLine
 62
7
  6
CONTINUOUS
 10
172.3748358402
 20
363.9760605644
 11
171.7082098638
 21
363.9760605644
  0
LINE
  5
6E8
100
AcDbEntity
  8
_____1
100
AcDbLine
 62
7
  6
CONTINUOUS
 10
169.6413248274
 20
363.9760605644
 11
169.1164645302
 21
363.9760605644
  0
LINE
  5
6E9
100
AcDbEntity
  8
_____1
100
AcDbLine
 62
7
  6
CONTINUOUS
 10
320.1163776869
 20
363.9760605644
 11
319.4497517105
 21
363.9760605644
  0
LINE
  5
6EA
100
AcDbEntity
  8
_____1
100
AcDbLine
 62
7
  6
CONTINUOUS
 10
322.8498886997
 20
363.9760605644
 11
322.1832627233
 21
363.9760605644
  0
LINE
  5
6EB
100
AcDbEntity
  8
_____1
100
AcDbLine
 62
7
  6
CONTINUOUS
 10
324.1833129072
 20
363.9760605644
 11
323.5165146761
 21
363.9760605644
  0
LINE
  5
6EC
100
AcDbEntity
  8
_____1
100
AcDbLine
 62
7
  6
CONTINUOUS
 10
326.91682392
 20
363.9760605644
 11
326.2501979436
 21
363.9760605644
  0
LINE
  5
6ED
100
AcDbEntity
  8
_____1
100
AcDbLine
 62
7
  6
CONTINUOUS
 10
328.2500758728
 20
363.9760605644
 11
327.5834498964
 21
363.9760605644
  0
LINE
  5
6EE
100
AcDbEntity
  8
_____1
100
AcDbLine
 62
7
  6
CONTINUOUS
 10
330.9837591403
 20
363.9760605644
 11
330.3169609092
 21
363.9760605644
  0
LINE
  5
6EF
100
AcDbEntity
  8
_____1
100
AcDbLine
 62
7
  6
CONTINUOUS
 10
332.3170110931
 20
363.9760605644
 11
331.6503851167
 21
363.9760605644
  0
LINE
  5
6F0
100
AcDbEntity
  8
_____1
100
AcDbLine
 62
7
  6
CONTINUOUS
 10
335.0505221059
 20
363.9760605644
 11
334.3838961295
 21
363.9760605644
  0
LINE
  5
6F1
100
AcDbEntity
  8
_____1
100
AcDbLine
 62
7
  6
CONTINUOUS
 10
336.3837740587
 20
363.9760605644
 11
335.7171480823
 21
363.9760605644
  0
LINE
  5
6F2
100
AcDbEntity
  8
_____1
100
AcDbLine
 62
7
  6
CONTINUOUS
 10
339.1172850715
 20
363.9760605644
 11
338.4506590951
 21
363.9760605644
  0
LINE
  5
6F3
100
AcDbEntity
  8
_____1
100
AcDbLine
 62
7
  6
CONTINUOUS
 10
340.450709279
 20
363.9760605644
 11
339.7840833026
 21
363.9760605644
  0
LINE
  5
6F4
100
AcDbEntity
  8
_____1
100
AcDbLine
 62
7
  6
CONTINUOUS
 10
343.1842202918
 20
363.9760605644
 11
342.5175943154
 21
363.9760605644
  0
LINE
  5
6F5
100
AcDbEntity
  8
_____1
100
AcDbLine
 62
7
  6
CONTINUOUS
 10
344.5174722446
 20
363.9760605644
 11
343.8508462682
 21
363.9760605644
  0
LINE
  5
6F6
100
AcDbEntity
  8
_____1
100
AcDbLine
 62
7
  6
CONTINUOUS
 10
347.2511555121
 20
363.9760605644
 11
346.5845295357
 21
363.9760605644
  0
LINE
  5
6F7
100
AcDbEntity
  8
_____1
100
AcDbLine
 62
7
  6
CONTINUOUS
 10
348.5844074649
 20
363.9760605644
 11
347.9177814885
 21
363.9760605644
  0
LINE
  5
6F8
100
AcDbEntity
  8
_____1
100
AcDbLine
 62
7
  6
CONTINUOUS
 10
351.3179184777
 20
363.9760605644
 11
350.6512925013
 21
363.9760605644
  0
LINE
  5
6F9
100
AcDbEntity
  8
_____1
100
AcDbLine
 62
7
  6
CONTINUOUS
 10
352.6511704305
 20
363.9760605644
 11
351.9845444541
 21
363.9760605644
  0
LINE
  5
6FA
100
AcDbEntity
  8
_____1
100
AcDbLine
 62
7
  6
CONTINUOUS
 10
355.384853698
 20
363.9760605644
 11
354.7180554669
 21
363.9760605644
  0
LINE
  5
6FB
100
AcDbEntity
  8
_____1
100
AcDbLine
 62
7
  6
CONTINUOUS
 10
356.7181056508
 20
363.9760605644
 11
356.0514796744
 21
363.9760605644
  0
LINE
  5
6FC
100
AcDbEntity
  8
_____1
100
AcDbLine
 62
7
  6
CONTINUOUS
 10
359.4516166636
 20
363.9760605644
 11
358.7849906872
 21
363.9760605644
  0
LINE
  5
6FD
100
AcDbEntity
  8
_____1
100
AcDbLine
 62
7
  6
CONTINUOUS
 10
360.7848686164
 20
363.9760605644
 11
360.11824264
 21
363.9760605644
  0
LINE
  5
6FE
100
AcDbEntity
  8
_____1
100
AcDbLine
 62
7
  6
CONTINUOUS
 10
363.5185518839
 20
363.9760605644
 11
362.8519259076
 21
363.9760605644
  0
LINE
  5
6FF
100
AcDbEntity
  8
_____1
100
AcDbLine
 62
7
  6
CONTINUOUS
 10
364.8518038367
 20
363.9760605644
 11
364.1851778603
 21
363.9760605644
  0
LINE
  5
700
100
AcDbEntity
  8
_____1
100
AcDbLine
 62
7
  6
CONTINUOUS
 10
367.5853148495
 20
363.9760605644
 11
366.9186888731
 21
363.9760605644
  0
LINE
  5
701
100
AcDbEntity
  8
_____1
100
AcDbLine
 62
7
  6
CONTINUOUS
 10
368.9187390571
 20
363.9760605644
 11
368.2521130807
 21
363.9760605644
  0
LINE
  5
702
100
AcDbEntity
  8
_____1
100
AcDbLine
 62
7
  6
CONTINUOUS
 10
371.6522500698
 20
363.9760605644
 11
370.9856240935
 21
363.9760605644
  0
LINE
  5
703
100
AcDbEntity
  8
_____1
100
AcDbLine
 62
7
  6
CONTINUOUS
 10
372.9855020226
 20
363.9760605644
 11
372.3188760462
 21
363.9760605644
  0
LINE
  5
704
100
AcDbEntity
  8
_____1
100
AcDbLine
 62
7
  6
CONTINUOUS
 10
375.7190130354
 20
363.9760605644
 11
375.052387059
 21
363.9760605644
  0
LINE
  5
705
100
AcDbEntity
  8
_____1
100
AcDbLine
 62
7
  6
CONTINUOUS
 10
377.0522649882
 20
363.9760605644
 11
376.3856390118
 21
363.9760605644
  0
LINE
  5
706
100
AcDbEntity
  8
_____1
100
AcDbLine
 62
7
  6
CONTINUOUS
 10
379.7859482557
 20
363.9760605644
 11
379.1193222794
 21
363.9760605644
  0
LINE
  5
707
100
AcDbEntity
  8
_____1
100
AcDbLine
 62
7
  6
CONTINUOUS
 10
381.1192002085
 20
363.9760605644
 11
380.4525742321
 21
363.9760605644
  0
LINE
  5
708
100
AcDbEntity
  8
_____1
100
AcDbLine
 62
7
  6
CONTINUOUS
 10
383.8528834761
 20
363.9760605644
 11
383.1860852449
 21
363.9760605644
  0
LINE
  5
709
100
AcDbEntity
  8
_____1
100
AcDbLine
 62
7
  6
CONTINUOUS
 10
385.1861354289
 20
363.9760605644
 11
384.5195094525
 21
363.9760605644
  0
LINE
  5
70A
100
AcDbEntity
  8
_____1
100
AcDbLine
 62
7
  6
CONTINUOUS
 10
387.9196464416
 20
363.9760605644
 11
387.2530204653
 21
363.9760605644
  0
LINE
  5
70B
100
AcDbEntity
  8
_____1
100
AcDbLine
 62
7
  6
CONTINUOUS
 10
389.2528983944
 20
363.9760605644
 11
388.586272418
 21
363.9760605644
  0
LINE
  5
70C
100
AcDbEntity
  8
_____1
100
AcDbLine
 62
7
  6
CONTINUOUS
 10
391.9864094072
 20
363.9760605644
 11
391.3197834308
 21
363.9760605644
  0
LINE
  5
70D
100
AcDbEntity
  8
_____1
100
AcDbLine
 62
7
  6
CONTINUOUS
 10
393.3198336148
 20
363.9760605644
 11
392.6530353836
 21
363.9760605644
  0
LINE
  5
70E
100
AcDbEntity
  8
_____1
100
AcDbLine
 62
7
  6
CONTINUOUS
 10
396.0533446275
 20
363.9760605644
 11
395.3867186512
 21
363.9760605644
  0
LINE
  5
70F
100
AcDbEntity
  8
_____1
100
AcDbLine
 62
7
  6
CONTINUOUS
 10
397.3865965803
 20
363.9760605644
 11
396.7199706039
 21
363.9760605644
  0
LINE
  5
710
100
AcDbEntity
  8
_____1
100
AcDbLine
 62
7
  6
CONTINUOUS
 10
400.1202798479
 20
363.9760605644
 11
399.4536538715
 21
363.9760605644
  0
LINE
  5
711
100
AcDbEntity
  8
_____1
100
AcDbLine
 62
7
  6
CONTINUOUS
 10
401.4535318007
 20
363.9760605644
 11
400.7869058243
 21
363.9760605644
  0
LINE
  5
712
100
AcDbEntity
  8
_____1
100
AcDbLine
 62
7
  6
CONTINUOUS
 10
404.1870428134
 20
363.9760605644
 11
403.5204168371
 21
363.9760605644
  0
LINE
  5
713
100
AcDbEntity
  8
_____1
100
AcDbLine
 62
7
  6
CONTINUOUS
 10
405.5202947662
 20
363.9760605644
 11
404.8536687898
 21
363.9760605644
  0
LINE
  5
714
100
AcDbEntity
  8
_____1
100
AcDbLine
 62
7
  6
CONTINUOUS
 10
408.253805779
 20
363.9760605644
 11
407.5871798026
 21
363.9760605644
  0
LINE
  5
715
100
AcDbEntity
  8
_____1
100
AcDbLine
 62
7
  6
CONTINUOUS
 10
409.5872299866
 20
363.9760605644
 11
408.9206040102
 21
363.9760605644
  0
LINE
  5
716
100
AcDbEntity
  8
_____1
100
AcDbLine
 62
7
  6
CONTINUOUS
 10
412.3207409994
 20
363.9760605644
 11
411.654115023
 21
363.9760605644
  0
LINE
  5
717
100
AcDbEntity
  8
_____1
100
AcDbLine
 62
7
  6
CONTINUOUS
 10
413.6539929521
 20
363.9760605644
 11
412.9873669757
 21
363.9760605644
  0
LINE
  5
718
100
AcDbEntity
  8
_____1
100
AcDbLine
 62
7
  6
CONTINUOUS
 10
416.3876762197
 20
363.9760605644
 11
415.7210502433
 21
363.9760605644
  0
LINE
  5
719
100
AcDbEntity
  8
_____1
100
AcDbLine
 62
7
  6
CONTINUOUS
 10
417.7209281725
 20
363.9760605644
 11
417.0543021961
 21
363.9760605644
  0
LINE
  5
71A
100
AcDbEntity
  8
_____1
100
AcDbLine
 62
7
  6
CONTINUOUS
 10
420.4544391853
 20
363.9760605644
 11
419.7878132089
 21
363.9760605644
  0
LINE
  5
71B
100
AcDbEntity
  8
_____1
100
AcDbLine
 62
7
  6
CONTINUOUS
 10
421.7878633928
 20
363.9760605644
 11
421.1212374164
 21
363.9760605644
  0
LINE
  5
71C
100
AcDbEntity
  8
_____1
100
AcDbLine
 62
7
  6
CONTINUOUS
 10
424.5212021508
 20
363.9760605644
 11
423.8545761744
 21
363.9760605644
  0
LINE
  5
71D
100
AcDbEntity
  8
_____1
100
AcDbLine
 62
7
  6
CONTINUOUS
 10
425.8544541036
 20
363.9760605644
 11
425.1881726368
 21
363.9760605644
  0
LINE
  5
71E
100
AcDbEntity
  8
_____1
100
AcDbLine
 62
7
  6
CONTINUOUS
 10
428.5881373712
 20
363.9760605644
 11
427.9215113948
 21
363.9760605644
  0
LINE
  5
71F
100
AcDbEntity
  8
_____1
100
AcDbLine
 62
7
  6
CONTINUOUS
 10
429.9213893239
 20
363.9760605644
 11
429.2547633475
 21
363.9760605644
  0
LINE
  5
720
100
AcDbEntity
  8
_____1
100
AcDbLine
 62
7
  6
CONTINUOUS
 10
432.6550725915
 20
363.9760605644
 11
431.9884466151
 21
363.9760605644
  0
LINE
  5
721
100
AcDbEntity
  8
_____1
100
AcDbLine
 62
7
  6
CONTINUOUS
 10
433.9883245443
 20
363.9760605644
 11
433.3216985679
 21
363.9760605644
  0
LINE
  5
722
100
AcDbEntity
  8
_____1
100
AcDbLine
 62
7
  6
CONTINUOUS
 10
436.7220078118
 20
363.9760605644
 11
436.0553818354
 21
363.9760605644
  0
LINE
  5
723
100
AcDbEntity
  8
_____1
100
AcDbLine
 62
7
  6
CONTINUOUS
 10
438.0552597646
 20
363.9760605644
 11
437.3886337882
 21
363.9760605644
  0
LINE
  5
724
100
AcDbEntity
  8
_____1
100
AcDbLine
 62
7
  6
CONTINUOUS
 10
440.7889430322
 20
363.9760605644
 11
440.1219725462
 21
363.9760605644
  0
LINE
  5
725
100
AcDbEntity
  8
_____1
100
AcDbLine
 62
7
  6
CONTINUOUS
 10
442.122194985
 20
363.9760605644
 11
441.455224499
 21
363.9760605644
  0
LINE
  5
726
100
AcDbEntity
  8
_____1
100
AcDbLine
 62
7
  6
CONTINUOUS
 10
444.855533743
 20
363.9760605644
 11
444.1889077666
 21
363.9760605644
  0
LINE
  5
727
100
AcDbEntity
  8
_____1
100
AcDbLine
 62
7
  6
CONTINUOUS
 10
446.1887856957
 20
363.9760605644
 11
445.5221597193
 21
363.9760605644
  0
LINE
  5
728
100
AcDbEntity
  8
_____1
100
AcDbLine
 62
7
  6
CONTINUOUS
 10
448.9224689633
 20
363.9760605644
 11
448.2558429869
 21
363.9760605644
  0
LINE
  5
729
100
AcDbEntity
  8
_____1
100
AcDbLine
 62
7
  6
CONTINUOUS
 10
450.2557209161
 20
363.9760605644
 11
449.5890949397
 21
363.9760605644
  0
LINE
  5
72A
100
AcDbEntity
  8
_____1
100
AcDbLine
 62
7
  6
CONTINUOUS
 10
452.9894041836
 20
363.9760605644
 11
452.3227782072
 21
363.9760605644
  0
LINE
  5
72B
100
AcDbEntity
  8
_____1
100
AcDbLine
 62
7
  6
CONTINUOUS
 10
454.3226561364
 20
363.9760605644
 11
453.65603016
 21
363.9760605644
  0
LINE
  5
72C
100
AcDbEntity
  8
_____1
100
AcDbLine
 62
7
  6
CONTINUOUS
 10
457.0559948944
 20
363.9760605644
 11
456.3897134276
 21
363.9760605644
  0
LINE
  5
72D
100
AcDbEntity
  8
_____1
100
AcDbLine
 62
7
  6
CONTINUOUS
 10
458.3895913568
 20
363.9760605644
 11
457.7229653804
 21
363.9760605644
  0
LINE
  5
72E
100
AcDbEntity
  8
_____1
100
AcDbLine
 62
7
  6
CONTINUOUS
 10
461.1229301148
 20
363.9760605644
 11
460.4563041384
 21
363.9760605644
  0
LINE
  5
72F
100
AcDbEntity
  8
_____1
100
AcDbLine
 62
7
  6
CONTINUOUS
 10
462.4561820675
 20
363.9760605644
 11
461.7895560911
 21
363.9760605644
  0
LINE
  5
730
100
AcDbEntity
  8
_____1
100
AcDbLine
 62
7
  6
CONTINUOUS
 10
465.1898653351
 20
363.9760605644
 11
464.5232393587
 21
363.9760605644
  0
LINE
  5
731
100
AcDbEntity
  8
_____1
100
AcDbLine
 62
7
  6
CONTINUOUS
 10
466.5231172879
 20
363.9760605644
 11
465.8564913115
 21
363.9760605644
  0
LINE
  5
732
100
AcDbEntity
  8
_____1
100
AcDbLine
 62
7
  6
CONTINUOUS
 10
168.9745265962
 20
363.9760605644
 11
168.3079006198
 21
363.9760605644
  0
LINE
  5
733
100
AcDbEntity
  8
_____1
100
AcDbLine
 62
7
  6
CONTINUOUS
 10
167.6412746434
 20
363.9760605644
 11
165.574389607
 21
363.9760605644
  0
LINE
  5
734
100
AcDbEntity
  8
_____1
100
AcDbLine
 62
7
  6
CONTINUOUS
 10
164.9077636306
 20
363.9760605644
 11
164.2409653995
 21
363.9760605644
  0
LINE
  5
735
100
AcDbEntity
  8
_____1
100
AcDbLine
 62
7
  6
CONTINUOUS
 10
163.5743394231
 20
363.9760605644
 11
161.5074543867
 21
363.9760605644
  0
LINE
  5
736
100
AcDbEntity
  8
_____1
100
AcDbLine
 62
7
  6
CONTINUOUS
 10
160.8408284103
 20
363.9760605644
 11
160.1740301791
 21
363.9760605644
  0
LINE
  5
737
100
AcDbEntity
  8
_____1
100
AcDbLine
 62
7
  6
CONTINUOUS
 10
159.5074042027
 20
363.9760605644
 11
157.4405191664
 21
363.9760605644
  0
LINE
  5
738
100
AcDbEntity
  8
_____1
100
AcDbLine
 62
7
  6
CONTINUOUS
 10
156.77389319
 20
363.9760605644
 11
156.1072672136
 21
363.9760605644
  0
LINE
  5
739
100
AcDbEntity
  8
_____1
100
AcDbLine
 62
7
  6
CONTINUOUS
 10
155.4404689824
 20
363.9760605644
 11
153.373583946
 21
363.9760605644
  0
LINE
  5
73A
100
AcDbEntity
  8
_____1
100
AcDbLine
 62
7
  6
CONTINUOUS
 10
152.7069579696
 20
363.9760605644
 11
152.0403319932
 21
363.9760605644
  0
LINE
  5
73B
100
AcDbEntity
  8
_____1
100
AcDbLine
 62
7
  6
CONTINUOUS
 10
151.3735337621
 20
363.9760605644
 11
149.3066487257
 21
363.9760605644
  0
LINE
  5
73C
100
AcDbEntity
  8
_____1
100
AcDbLine
 62
7
  6
CONTINUOUS
 10
148.6400227493
 20
363.9760605644
 11
147.9733967729
 21
363.9760605644
  0
LINE
  5
73D
100
AcDbEntity
  8
_____1
100
AcDbLine
 62
7
  6
CONTINUOUS
 10
147.3065985417
 20
363.9760605644
 11
145.2397135054
 21
363.9760605644
  0
LINE
  5
73E
100
AcDbEntity
  8
_____1
100
AcDbLine
 62
7
  6
CONTINUOUS
 10
144.573087529
 20
363.9760605644
 11
143.9064615526
 21
363.9760605644
  0
LINE
  5
73F
100
AcDbEntity
  8
_____1
100
AcDbLine
 62
7
  6
CONTINUOUS
 10
143.2398355762
 20
363.9760605644
 11
141.1724337755
 21
363.9760605644
  0
LINE
  5
740
100
AcDbEntity
  8
_____1
100
AcDbLine
 62
7
  6
CONTINUOUS
 10
318.7831257341
 20
363.9760605644
 11
319.4497517105
 21
363.9760605644
  0
LINE
  5
741
100
AcDbEntity
  8
_____1
100
AcDbLine
 62
7
  6
CONTINUOUS
 10
320.1163776869
 20
363.9760605644
 11
322.1832627233
 21
363.9760605644
  0
LINE
  5
742
100
AcDbEntity
  8
_____1
100
AcDbLine
 62
7
  6
CONTINUOUS
 10
322.8498886997
 20
363.9760605644
 11
323.5165146761
 21
363.9760605644
  0
LINE
  5
743
100
AcDbEntity
  8
_____1
100
AcDbLine
 62
7
  6
CONTINUOUS
 10
324.1833129072
 20
363.9760605644
 11
326.2501979436
 21
363.9760605644
  0
LINE
  5
744
100
AcDbEntity
  8
_____1
100
AcDbLine
 62
7
  6
CONTINUOUS
 10
326.91682392
 20
363.9760605644
 11
327.5834498964
 21
363.9760605644
  0
LINE
  5
745
100
AcDbEntity
  8
_____1
100
AcDbLine
 62
7
  6
CONTINUOUS
 10
328.2500758728
 20
363.9760605644
 11
330.3169609092
 21
363.9760605644
  0
LINE
  5
746
100
AcDbEntity
  8
_____1
100
AcDbLine
 62
7
  6
CONTINUOUS
 10
330.9837591403
 20
363.9760605644
 11
331.6503851167
 21
363.9760605644
  0
LINE
  5
747
100
AcDbEntity
  8
_____1
100
AcDbLine
 62
7
  6
CONTINUOUS
 10
332.3170110931
 20
363.9760605644
 11
334.3838961295
 21
363.9760605644
  0
LINE
  5
748
100
AcDbEntity
  8
_____1
100
AcDbLine
 62
7
  6
CONTINUOUS
 10
335.0505221059
 20
363.9760605644
 11
335.7171480823
 21
363.9760605644
  0
LINE
  5
749
100
AcDbEntity
  8
_____1
100
AcDbLine
 62
7
  6
CONTINUOUS
 10
336.3837740587
 20
363.9760605644
 11
338.4506590951
 21
363.9760605644
  0
LINE
  5
74A
100
AcDbEntity
  8
_____1
100
AcDbLine
 62
7
  6
CONTINUOUS
 10
339.1172850715
 20
363.9760605644
 11
339.7840833026
 21
363.9760605644
  0
LINE
  5
74B
100
AcDbEntity
  8
_____1
100
AcDbLine
 62
7
  6
CONTINUOUS
 10
340.450709279
 20
363.9760605644
 11
342.5175943154
 21
363.9760605644
  0
LINE
  5
74C
100
AcDbEntity
  8
_____1
100
AcDbLine
 62
7
  6
CONTINUOUS
 10
343.1842202918
 20
363.9760605644
 11
343.8508462682
 21
363.9760605644
  0
LINE
  5
74D
100
AcDbEntity
  8
_____1
100
AcDbLine
 62
7
  6
CONTINUOUS
 10
344.5174722446
 20
363.9760605644
 11
346.5845295357
 21
363.9760605644
  0
LINE
  5
74E
100
AcDbEntity
  8
_____1
100
AcDbLine
 62
7
  6
CONTINUOUS
 10
347.2511555121
 20
363.9760605644
 11
347.9177814885
 21
363.9760605644
  0
LINE
  5
74F
100
AcDbEntity
  8
_____1
100
AcDbLine
 62
7
  6
CONTINUOUS
 10
348.5844074649
 20
363.9760605644
 11
350.6512925013
 21
363.9760605644
  0
LINE
  5
750
100
AcDbEntity
  8
_____1
100
AcDbLine
 62
7
  6
CONTINUOUS
 10
351.3179184777
 20
363.9760605644
 11
351.9845444541
 21
363.9760605644
  0
LINE
  5
751
100
AcDbEntity
  8
_____1
100
AcDbLine
 62
7
  6
CONTINUOUS
 10
352.6511704305
 20
363.9760605644
 11
354.7180554669
 21
363.9760605644
  0
LINE
  5
752
100
AcDbEntity
  8
_____1
100
AcDbLine
 62
7
  6
CONTINUOUS
 10
355.384853698
 20
363.9760605644
 11
356.0514796744
 21
363.9760605644
  0
LINE
  5
753
100
AcDbEntity
  8
_____1
100
AcDbLine
 62
7
  6
CONTINUOUS
 10
356.7181056508
 20
363.9760605644
 11
358.7849906872
 21
363.9760605644
  0
LINE
  5
754
100
AcDbEntity
  8
_____1
100
AcDbLine
 62
7
  6
CONTINUOUS
 10
359.4516166636
 20
363.9760605644
 11
360.11824264
 21
363.9760605644
  0
LINE
  5
755
100
AcDbEntity
  8
_____1
100
AcDbLine
 62
7
  6
CONTINUOUS
 10
360.7848686164
 20
363.9760605644
 11
362.8519259076
 21
363.9760605644
  0
LINE
  5
756
100
AcDbEntity
  8
_____1
100
AcDbLine
 62
7
  6
CONTINUOUS
 10
363.5185518839
 20
363.9760605644
 11
364.1851778603
 21
363.9760605644
  0
LINE
  5
757
100
AcDbEntity
  8
_____1
100
AcDbLine
 62
7
  6
CONTINUOUS
 10
364.8518038367
 20
363.9760605644
 11
366.9186888731
 21
363.9760605644
  0
LINE
  5
758
100
AcDbEntity
  8
_____1
100
AcDbLine
 62
7
  6
CONTINUOUS
 10
367.5853148495
 20
363.9760605644
 11
368.2521130807
 21
363.9760605644
  0
LINE
  5
759
100
AcDbEntity
  8
_____1
100
AcDbLine
 62
7
  6
CONTINUOUS
 10
368.9187390571
 20
363.9760605644
 11
370.9856240935
 21
363.9760605644
  0
LINE
  5
75A
100
AcDbEntity
  8
_____1
100
AcDbLine
 62
7
  6
CONTINUOUS
 10
371.6522500698
 20
363.9760605644
 11
372.3188760462
 21
363.9760605644
  0
LINE
  5
75B
100
AcDbEntity
  8
_____1
100
AcDbLine
 62
7
  6
CONTINUOUS
 10
372.9855020226
 20
363.9760605644
 11
375.052387059
 21
363.9760605644
  0
LINE
  5
75C
100
AcDbEntity
  8
_____1
100
AcDbLine
 62
7
  6
CONTINUOUS
 10
375.7190130354
 20
363.9760605644
 11
376.3856390118
 21
363.9760605644
  0
LINE
  5
75D
100
AcDbEntity
  8
_____1
100
AcDbLine
 62
7
  6
CONTINUOUS
 10
377.0522649882
 20
363.9760605644
 11
379.1193222794
 21
363.9760605644
  0
LINE
  5
75E
100
AcDbEntity
  8
_____1
100
AcDbLine
 62
7
  6
CONTINUOUS
 10
379.7859482557
 20
363.9760605644
 11
380.4525742321
 21
363.9760605644
  0
LINE
  5
75F
100
AcDbEntity
  8
_____1
100
AcDbLine
 62
7
  6
CONTINUOUS
 10
381.1192002085
 20
363.9760605644
 11
383.1860852449
 21
363.9760605644
  0
LINE
  5
760
100
AcDbEntity
  8
_____1
100
AcDbLine
 62
7
  6
CONTINUOUS
 10
383.8528834761
 20
363.9760605644
 11
384.5195094525
 21
363.9760605644
  0
LINE
  5
761
100
AcDbEntity
  8
_____1
100
AcDbLine
 62
7
  6
CONTINUOUS
 10
385.1861354289
 20
363.9760605644
 11
387.2530204653
 21
363.9760605644
  0
LINE
  5
762
100
AcDbEntity
  8
_____1
100
AcDbLine
 62
7
  6
CONTINUOUS
 10
387.9196464416
 20
363.9760605644
 11
388.586272418
 21
363.9760605644
  0
LINE
  5
763
100
AcDbEntity
  8
_____1
100
AcDbLine
 62
7
  6
CONTINUOUS
 10
389.2528983944
 20
363.9760605644
 11
391.3197834308
 21
363.9760605644
  0
LINE
  5
764
100
AcDbEntity
  8
_____1
100
AcDbLine
 62
7
  6
CONTINUOUS
 10
391.9864094072
 20
363.9760605644
 11
392.6530353836
 21
363.9760605644
  0
LINE
  5
765
100
AcDbEntity
  8
_____1
100
AcDbLine
 62
7
  6
CONTINUOUS
 10
393.3198336148
 20
363.9760605644
 11
395.3867186512
 21
363.9760605644
  0
LINE
  5
766
100
AcDbEntity
  8
_____1
100
AcDbLine
 62
7
  6
CONTINUOUS
 10
396.0533446275
 20
363.9760605644
 11
396.7199706039
 21
363.9760605644
  0
LINE
  5
767
100
AcDbEntity
  8
_____1
100
AcDbLine
 62
7
  6
CONTINUOUS
 10
397.3865965803
 20
363.9760605644
 11
399.4536538715
 21
363.9760605644
  0
LINE
  5
768
100
AcDbEntity
  8
_____1
100
AcDbLine
 62
7
  6
CONTINUOUS
 10
400.1202798479
 20
363.9760605644
 11
400.7869058243
 21
363.9760605644
  0
LINE
  5
769
100
AcDbEntity
  8
_____1
100
AcDbLine
 62
7
  6
CONTINUOUS
 10
401.4535318007
 20
363.9760605644
 11
403.5204168371
 21
363.9760605644
  0
LINE
  5
76A
100
AcDbEntity
  8
_____1
100
AcDbLine
 62
7
  6
CONTINUOUS
 10
404.1870428134
 20
363.9760605644
 11
404.8536687898
 21
363.9760605644
  0
LINE
  5
76B
100
AcDbEntity
  8
_____1
100
AcDbLine
 62
7
  6
CONTINUOUS
 10
405.5202947662
 20
363.9760605644
 11
407.5871798026
 21
363.9760605644
  0
LINE
  5
76C
100
AcDbEntity
  8
_____1
100
AcDbLine
 62
7
  6
CONTINUOUS
 10
408.253805779
 20
363.9760605644
 11
408.9206040102
 21
363.9760605644
  0
LINE
  5
76D
100
AcDbEntity
  8
_____1
100
AcDbLine
 62
7
  6
CONTINUOUS
 10
409.5872299866
 20
363.9760605644
 11
411.654115023
 21
363.9760605644
  0
LINE
  5
76E
100
AcDbEntity
  8
_____1
100
AcDbLine
 62
7
  6
CONTINUOUS
 10
412.3207409994
 20
363.9760605644
 11
412.9873669757
 21
363.9760605644
  0
LINE
  5
76F
100
AcDbEntity
  8
_____1
100
AcDbLine
 62
7
  6
CONTINUOUS
 10
413.6539929521
 20
363.9760605644
 11
415.7210502433
 21
363.9760605644
  0
LINE
  5
770
100
AcDbEntity
  8
_____1
100
AcDbLine
 62
7
  6
CONTINUOUS
 10
416.3876762197
 20
363.9760605644
 11
417.0543021961
 21
363.9760605644
  0
LINE
  5
771
100
AcDbEntity
  8
_____1
100
AcDbLine
 62
7
  6
CONTINUOUS
 10
417.7209281725
 20
363.9760605644
 11
419.7878132089
 21
363.9760605644
  0
LINE
  5
772
100
AcDbEntity
  8
_____1
100
AcDbLine
 62
7
  6
CONTINUOUS
 10
420.4544391853
 20
363.9760605644
 11
421.1212374164
 21
363.9760605644
  0
LINE
  5
773
100
AcDbEntity
  8
_____1
100
AcDbLine
 62
7
  6
CONTINUOUS
 10
421.7878633928
 20
363.9760605644
 11
423.8545761744
 21
363.9760605644
  0
LINE
  5
774
100
AcDbEntity
  8
_____1
100
AcDbLine
 62
7
  6
CONTINUOUS
 10
424.5212021508
 20
363.9760605644
 11
425.1881726368
 21
363.9760605644
  0
LINE
  5
775
100
AcDbEntity
  8
_____1
100
AcDbLine
 62
7
  6
CONTINUOUS
 10
425.8544541036
 20
363.9760605644
 11
427.9215113948
 21
363.9760605644
  0
LINE
  5
776
100
AcDbEntity
  8
_____1
100
AcDbLine
 62
7
  6
CONTINUOUS
 10
428.5881373712
 20
363.9760605644
 11
429.2547633475
 21
363.9760605644
  0
LINE
  5
777
100
AcDbEntity
  8
_____1
100
AcDbLine
 62
7
  6
CONTINUOUS
 10
429.9213893239
 20
363.9760605644
 11
431.9884466151
 21
363.9760605644
  0
LINE
  5
778
100
AcDbEntity
  8
_____1
100
AcDbLine
 62
7
  6
CONTINUOUS
 10
432.6550725915
 20
363.9760605644
 11
433.3216985679
 21
363.9760605644
  0
LINE
  5
779
100
AcDbEntity
  8
_____1
100
AcDbLine
 62
7
  6
CONTINUOUS
 10
433.9883245443
 20
363.9760605644
 11
436.0553818354
 21
363.9760605644
  0
LINE
  5
77A
100
AcDbEntity
  8
_____1
100
AcDbLine
 62
7
  6
CONTINUOUS
 10
436.7220078118
 20
363.9760605644
 11
437.3886337882
 21
363.9760605644
  0
LINE
  5
77B
100
AcDbEntity
  8
_____1
100
AcDbLine
 62
7
  6
CONTINUOUS
 10
438.0552597646
 20
363.9760605644
 11
440.1219725462
 21
363.9760605644
  0
LINE
  5
77C
100
AcDbEntity
  8
_____1
100
AcDbLine
 62
7
  6
CONTINUOUS
 10
440.7889430322
 20
363.9760605644
 11
441.455224499
 21
363.9760605644
  0
LINE
  5
77D
100
AcDbEntity
  8
_____1
100
AcDbLine
 62
7
  6
CONTINUOUS
 10
442.122194985
 20
363.9760605644
 11
444.1889077666
 21
363.9760605644
  0
LINE
  5
77E
100
AcDbEntity
  8
_____1
100
AcDbLine
 62
7
  6
CONTINUOUS
 10
444.855533743
 20
363.9760605644
 11
445.5221597193
 21
363.9760605644
  0
LINE
  5
77F
100
AcDbEntity
  8
_____1
100
AcDbLine
 62
7
  6
CONTINUOUS
 10
446.1887856957
 20
363.9760605644
 11
448.2558429869
 21
363.9760605644
  0
LINE
  5
780
100
AcDbEntity
  8
_____1
100
AcDbLine
 62
7
  6
CONTINUOUS
 10
448.9224689633
 20
363.9760605644
 11
449.5890949397
 21
363.9760605644
  0
LINE
  5
781
100
AcDbEntity
  8
_____1
100
AcDbLine
 62
7
  6
CONTINUOUS
 10
450.2557209161
 20
363.9760605644
 11
452.3227782072
 21
363.9760605644
  0
LINE
  5
782
100
AcDbEntity
  8
_____1
100
AcDbLine
 62
7
  6
CONTINUOUS
 10
452.9894041836
 20
363.9760605644
 11
453.65603016
 21
363.9760605644
  0
LINE
  5
783
100
AcDbEntity
  8
_____1
100
AcDbLine
 62
7
  6
CONTINUOUS
 10
454.3226561364
 20
363.9760605644
 11
456.3897134276
 21
363.9760605644
  0
LINE
  5
784
100
AcDbEntity
  8
_____1
100
AcDbLine
 62
7
  6
CONTINUOUS
 10
457.0559948944
 20
363.9760605644
 11
457.7229653804
 21
363.9760605644
  0
LINE
  5
785
100
AcDbEntity
  8
_____1
100
AcDbLine
 62
7
  6
CONTINUOUS
 10
458.3895913568
 20
363.9760605644
 11
460.4563041384
 21
363.9760605644
  0
LINE
  5
786
100
AcDbEntity
  8
_____1
100
AcDbLine
 62
7
  6
CONTINUOUS
 10
461.1229301148
 20
363.9760605644
 11
461.7895560911
 21
363.9760605644
  0
LINE
  5
787
100
AcDbEntity
  8
_____1
100
AcDbLine
 62
7
  6
CONTINUOUS
 10
462.4561820675
 20
363.9760605644
 11
464.5232393587
 21
363.9760605644
  0
LINE
  5
788
100
AcDbEntity
  8
_____1
100
AcDbLine
 62
7
  6
CONTINUOUS
 10
465.1898653351
 20
363.9760605644
 11
465.8564913115
 21
363.9760605644
  0
LINE
  5
789
100
AcDbEntity
  8
_____1
100
AcDbLine
 62
7
  6
CONTINUOUS
 10
466.5231172879
 20
363.9760605644
 11
468.590174579
 21
363.9760605644
  0
LINE
  5
78A
100
AcDbEntity
  8
_____1
100
AcDbLine
 62
7
  6
CONTINUOUS
 10
469.2568005554
 20
363.9760605644
 11
469.9234265318
 21
363.9760605644
  0
LINE
  5
78B
100
AcDbEntity
  8
_____1
100
AcDbLine
 62
7
  6
CONTINUOUS
 10
470.5900525082
 20
363.9760605644
 11
472.6567652898
 21
363.9760605644
  0
LINE
  5
78C
100
AcDbEntity
  8
_____1
100
AcDbLine
 62
7
  6
CONTINUOUS
 10
473.3237357758
 20
363.9760605644
 11
473.9903617522
 21
363.9760605644
  0
LINE
  5
78D
100
AcDbEntity
  8
_____1
100
AcDbLine
 62
7
  6
CONTINUOUS
 10
474.6569877286
 20
363.9760605644
 11
476.7237005102
 21
363.9760605644
  0
LINE
  5
78E
100
AcDbEntity
  8
_____1
100
AcDbLine
 62
7
  6
CONTINUOUS
 10
477.3903264866
 20
363.9760605644
 11
478.056952463
 21
363.9760605644
  0
LINE
  5
78F
100
AcDbEntity
  8
_____1
100
AcDbLine
 62
7
  6
CONTINUOUS
 10
478.7235784393
 20
363.9760605644
 11
480.7906357305
 21
363.9760605644
  0
LINE
  5
790
100
AcDbEntity
  8
_____1
100
AcDbLine
 62
7
  6
CONTINUOUS
 10
481.4572617069
 20
363.9760605644
 11
482.1238876833
 21
363.9760605644
  0
LINE
  5
791
100
AcDbEntity
  8
_____1
100
AcDbLine
 62
7
  6
CONTINUOUS
 10
482.7905136597
 20
363.9760605644
 11
484.8575709508
 21
363.9760605644
  0
LINE
  5
792
100
AcDbEntity
  8
_____1
100
AcDbLine
 62
7
  6
CONTINUOUS
 10
485.5241969272
 20
363.9760605644
 11
486.1908229036
 21
363.9760605644
  0
LINE
  5
793
100
AcDbEntity
  8
_____1
100
AcDbLine
 62
7
  6
CONTINUOUS
 10
486.85744888
 20
363.9760605644
 11
488.9245061712
 21
363.9760605644
  0
LINE
  5
794
100
AcDbEntity
  8
_____1
100
AcDbLine
 62
7
  6
CONTINUOUS
 10
489.5911321476
 20
363.9760605644
 11
490.257758124
 21
363.9760605644
  0
LINE
  5
795
100
AcDbEntity
  8
_____1
100
AcDbLine
 62
7
  6
CONTINUOUS
 10
490.9243841004
 20
363.9760605644
 11
492.991096882
 21
363.9760605644
  0
LINE
  5
796
100
AcDbEntity
  8
_____1
100
AcDbLine
 62
7
  6
CONTINUOUS
 10
493.6577228584
 20
363.9760605644
 11
494.3243488348
 21
363.9760605644
  0
LINE
  5
797
100
AcDbEntity
  8
_____1
100
AcDbLine
 62
7
  6
CONTINUOUS
 10
494.9913193207
 20
363.9760605644
 11
497.0604436691
 21
363.9760605644
  0
LINE
  5
798
100
AcDbEntity
  8
_____1
100
AcDbLine
 62
7
  6
CONTINUOUS
 10
498.0605548885
 20
363.9760605644
 11
501.1163545839
 21
363.9760605644
  0
LINE
  5
799
100
AcDbEntity
  8
_____1
100
AcDbLine
 62
7
  6
CONTINUOUS
 10
829.5001001615
 20
369.0000433105
 11
833.3000404818
 21
369.0000433105
  0
LINE
  5
79A
100
AcDbEntity
  8
_____1
100
AcDbLine
 62
7
  6
CONTINUOUS
 10
319.1164387223
 20
372.7260863326
 11
337.8069430037
 21
372.2367105189
  0
LINE
  5
79B
100
AcDbEntity
  8
_____1
100
AcDbLine
 62
7
  6
CONTINUOUS
 10
302.6643852325
 20
407.7620183985
 11
301.1556056647
 21
408.0724215017
  0
LINE
  5
79C
100
AcDbEntity
  8
_____1
100
AcDbLine
 62
7
  6
CONTINUOUS
 10
297.0171847131
 20
409.9611951015
 11
298.4829005873
 21
409.4876667271
  0
LINE
  5
79D
100
AcDbEntity
  8
_____1
100
AcDbLine
 62
7
  6
CONTINUOUS
 10
303.1764986764
 20
420.6344454244
 11
304.6384249455
 21
420.14937598
  0
LINE
  5
79E
100
AcDbEntity
  8
_____1
100
AcDbLine
 62
7
  6
CONTINUOUS
 10
286.5244573936
 20
454.7873995174
 11
286.0803845856
 21
455.061629118
  0
LINE
  5
79F
100
AcDbEntity
  8
_____1
100
AcDbLine
 62
7
  6
CONTINUOUS
 10
287.8010375257
 20
455.6876029677
 11
288.2451103338
 21
455.413373367
  0
LINE
  5
7A0
100
AcDbEntity
  8
_____1
100
AcDbLine
 62
7
  6
CONTINUOUS
 10
287.2186441339
 20
453.5142644808
 11
287.6628891967
 21
453.2398626254
  0
LINE
  5
7A1
100
AcDbEntity
  8
_____1
100
AcDbLine
 62
7
  6
CONTINUOUS
 10
396.8477836464
 20
407.9916340126
 11
397.0958305214
 21
407.8383272635
  0
LINE
  5
7A2
100
AcDbEntity
  8
_____1
100
AcDbLine
 62
7
  6
CONTINUOUS
 10
399.8017807703
 20
407.8269584484
 11
400.0496553904
 21
407.6736516993
  0
LINE
  5
7A3
100
AcDbEntity
  8
_____1
100
AcDbLine
 62
7
  6
CONTINUOUS
 10
399.3267021029
 20
406.4570162287
 11
399.0788274827
 21
406.6104952325
  0
LINE
  5
7A4
100
AcDbEntity
  8
_____1
100
AcDbLine
 62
7
  6
CONTINUOUS
 10
399.5539061501
 20
407.9804374523
 11
399.8017807703
 21
407.8269584484
  0
LINE
  5
7A5
100
AcDbEntity
  8
_____1
100
AcDbLine
 62
7
  6
CONTINUOUS
 10
398.9809867709
 20
409.0914807463
 11
399.2288613911
 21
408.9380017424
  0
LINE
  5
7A6
100
AcDbEntity
  8
_____1
100
AcDbLine
 62
7
  6
CONTINUOUS
 10
401.1141898954
 20
410.1913274799
 11
401.3620645155
 21
410.037848476
  0
LINE
  5
7A7
100
AcDbEntity
  8
_____1
100
AcDbLine
 62
7
  6
CONTINUOUS
 10
403.5931083518
 20
408.656709696
 11
403.3452337316
 21
408.8101886999
  0
LINE
  5
7A8
100
AcDbEntity
  8
_____1
100
AcDbLine
 62
7
  6
CONTINUOUS
 10
403.7055907194
 20
410.4023395784
 11
403.9534653395
 21
410.2488605745
  0
LINE
  5
7A9
100
AcDbEntity
  8
_____1
100
AcDbLine
 62
7
  6
CONTINUOUS
 10
351.298625943
 20
455.3503281197
 11
351.6178140397
 21
455.1253633845
  0
LINE
  5
7AA
100
AcDbEntity
  8
_____1
100
AcDbLine
 62
7
  6
CONTINUOUS
 10
350.6650728833
 20
451.9195297807
 11
350.3458847865
 21
452.1446667706
  0
LINE
  5
7AB
100
AcDbEntity
  8
_____1
100
AcDbLine
 62
7
  6
CONTINUOUS
 10
352.9245387573
 20
453.1461560282
 11
353.243726854
 21
452.9210190382
  0
LINE
  5
7AC
100
AcDbEntity
  8
_____1
100
AcDbLine
 62
7
  6
CONTINUOUS
 10
350.0826794915
 20
454.0928682676
 11
349.7636636495
 21
454.3180052575
  0
LINE
  5
7AD
100
AcDbEntity
  8
_____1
100
AcDbLine
 62
7
  6
CONTINUOUS
 10
403.9534653395
 20
410.2488605745
 11
404.3158893846
 21
409.8733451666
  0
LINE
  5
7AE
100
AcDbEntity
  8
_____1
100
AcDbLine
 62
7
  6
CONTINUOUS
 10
499.1164766547
 20
301.2753227328
 11
499.366590587
 21
300.9752549161
  0
LINE
  5
7AF
100
AcDbEntity
  8
_____1
100
AcDbLine
 62
7
  6
CONTINUOUS
 10
431.8964625656
 20
473.1857597016
 11
431.6642631299
 21
473.6534314137
  0
LINE
  5
7B0
100
AcDbEntity
  8
_____1
100
AcDbLine
 62
7
  6
CONTINUOUS
 10
433.4557127823
 20
473.2748154199
 11
433.6875677084
 21
472.8071437078
  0
LINE
  5
7B1
100
AcDbEntity
  8
_____1
100
AcDbLine
 62
7
  6
CONTINUOUS
 10
432.5792804908
 20
472.4552272039
 11
432.3474255647
 21
472.9230711708
  0
LINE
  5
7B2
100
AcDbEntity
  8
_____1
100
AcDbLine
 62
7
  6
CONTINUOUS
 10
433.6493271485
 20
474.8247638787
 11
433.4174722224
 21
475.2926078456
  0
LINE
  5
7B3
100
AcDbEntity
  8
_____1
100
AcDbLine
 62
7
  6
CONTINUOUS
 10
435.4080483938
 20
490.8175861403
 11
435.4865965708
 21
490.5368108583
  0
LINE
  5
7B4
100
AcDbEntity
  8
_____1
100
AcDbLine
 62
7
  6
CONTINUOUS
 10
438.0442354591
 20
491.4203055955
 11
438.1227836361
 21
491.1395303134
  0
LINE
  5
7B5
100
AcDbEntity
  8
_____1
100
AcDbLine
 62
7
  6
CONTINUOUS
 10
437.6232447908
 20
493.8845823961
 11
437.5446966137
 21
494.1653576781
  0
LINE
  5
7B6
100
AcDbEntity
  8
_____1
100
AcDbLine
 62
7
  6
CONTINUOUS
 10
439.694091687
 20
493.1631794014
 11
439.772639864
 21
492.8824041194
  0
LINE
  5
7B7
100
AcDbEntity
  8
_____1
100
AcDbLine
 62
7
  6
CONTINUOUS
 10
439.2731010187
 20
495.627456202
 11
439.1945528416
 21
495.9082314841
  0
LINE
  5
7B8
100
AcDbEntity
  8
_____1
100
AcDbLine
 62
7
  6
CONTINUOUS
 10
435.9730440533
 20
492.1417085901
 11
435.8948403858
 21
492.4224838721
  0
LINE
  5
7B9
100
AcDbEntity
  8
_____1
100
AcDbLine
 62
7
  6
CONTINUOUS
 10
441.3442924244
 20
494.9060532074
 11
441.4224960919
 21
494.6252779254
  0
LINE
  5
7BA
100
AcDbEntity
  8
_____1
100
AcDbLine
 62
7
  6
CONTINUOUS
 10
499.7665661728
 20
239.474443842
 11
500.1165878741
 21
237.9744492678
  0
LINE
  5
7BB
100
AcDbEntity
  8
_____1
100
AcDbLine
 62
7
  6
CONTINUOUS
 10
492.4664088396
 20
362.4760659901
 11
492.1163871383
 21
363.9760605644
  0
LINE
  5
7BC
100
AcDbEntity
  8
_____1
100
AcDbLine
 62
7
  6
CONTINUOUS
 10
514.0485540165
 20
119.2960774441
 11
514.0485540165
 21
121.7958387282
  0
LINE
  5
7BD
100
AcDbEntity
  8
_____1
100
AcDbLine
 62
7
  6
CONTINUOUS
 10
515.248480774
 20
121.7958387282
 11
515.248480774
 21
119.2960774441
  0
LINE
  5
7BE
100
AcDbEntity
  8
_____1
100
AcDbLine
 62
7
  6
CONTINUOUS
 10
516.2985458779
 20
118.7958495797
 11
516.2985458779
 21
121.7958387282
  0
LINE
  5
7BF
100
AcDbEntity
  8
_____1
100
AcDbLine
 62
7
  6
CONTINUOUS
 10
517.7985404521
 20
121.7958387282
 11
517.7985404521
 21
118.7958495797
  0
LINE
  5
7C0
100
AcDbEntity
  8
_____1
100
AcDbLine
 62
7
  6
CONTINUOUS
 10
521.2484590711
 20
118.7958495797
 11
521.2484590711
 21
121.7958387282
  0
LINE
  5
7C1
100
AcDbEntity
  8
_____1
100
AcDbLine
 62
7
  6
CONTINUOUS
 10
522.4483858286
 20
121.2959553733
 11
522.4483858286
 21
120.7960720184
  0
LINE
  5
7C2
100
AcDbEntity
  8
_____1
100
AcDbLine
 62
7
  6
CONTINUOUS
 10
523.6483125861
 20
121.7958387282
 11
523.6483125861
 21
118.7958495797
  0
LINE
  5
7C3
100
AcDbEntity
  8
_____1
100
AcDbLine
 62
7
  6
CONTINUOUS
 10
525.9048501289
 20
584.3999876469
 11
525.9048501289
 21
584.7000554636
  0
LINE
  5
7C4
100
AcDbEntity
  8
_____1
100
AcDbLine
 62
7
  6
CONTINUOUS
 10
526.039897872
 20
586.2000500379
 11
526.039897872
 21
586.4999455999
  0
LINE
  5
7C5
100
AcDbEntity
  8
_____1
100
AcDbLine
 62
7
  6
CONTINUOUS
 10
527.1199353066
 20
586.4999455999
 11
527.1199353066
 21
586.2000500379
  0
LINE
  5
7C6
100
AcDbEntity
  8
_____1
100
AcDbLine
 62
7
  6
CONTINUOUS
 10
527.2549830496
 20
584.7000554636
 11
527.2549830496
 21
584.3999876469
  0
LINE
  5
7C7
100
AcDbEntity
  8
_____1
100
AcDbLine
 62
7
  6
CONTINUOUS
 10
528.4483641257
 20
118.7958495797
 11
528.4483641257
 21
121.7958387282
  0
LINE
  5
7C8
100
AcDbEntity
  8
_____1
100
AcDbLine
 62
7
  6
CONTINUOUS
 10
529.6486353928
 20
118.7958495797
 11
529.6486353928
 21
121.7958387282
  0
LINE
  5
7C9
100
AcDbEntity
  8
_____1
100
AcDbLine
 62
7
  6
CONTINUOUS
 10
530.8485621503
 20
118.7958495797
 11
530.8485621503
 21
121.7958387282
  0
LINE
  5
7CA
100
AcDbEntity
  8
_____1
100
AcDbLine
 62
7
  6
CONTINUOUS
 10
508.198437373
 20
120.295844154
 11
508.0485757193
 21
119.5458468668
  0
LINE
  5
7CB
100
AcDbEntity
  8
_____1
100
AcDbLine
 62
7
  6
CONTINUOUS
 10
593.6199244393
 20
584.7000554636
 11
593.4848766962
 21
584.0999198301
  0
LINE
  5
7CC
100
AcDbEntity
  8
_____1
100
AcDbLine
 62
7
  6
CONTINUOUS
 10
592.5398870046
 20
585.8999822211
 11
592.6749347477
 21
586.4999455999
  0
LINE
  5
7CD
100
AcDbEntity
  8
_____1
100
AcDbLine
 62
7
  6
CONTINUOUS
 10
593.6199244393
 20
585.8999822211
 11
593.4848766962
 21
585.3000188424
  0
LINE
  5
7CE
100
AcDbEntity
  8
_____1
100
AcDbLine
 62
7
  6
CONTINUOUS
 10
497.0983397195
 20
118.7958495797
 11
497.8483370066
 21
121.7958387282
  0
LINE
  5
7CF
100
AcDbEntity
  8
_____1
100
AcDbLine
 62
7
  6
CONTINUOUS
 10
661.3349987496
 20
586.4999455999
 11
661.4700464926
 21
586.8000134167
  0
LINE
  5
7D0
100
AcDbEntity
  8
_____1
100
AcDbLine
 62
7
  6
CONTINUOUS
 10
662.1449406982
 20
584.0999198301
 11
662.0098929552
 21
583.8000242681
  0
LINE
  5
7D1
100
AcDbEntity
  8
_____1
100
AcDbLine
 62
7
  6
CONTINUOUS
 10
134.8267401464
 20
109.5385335013
 11
135.3267957561
 21
109.6887396644
  0
LINE
  5
7D2
100
AcDbEntity
  8
_____1
100
AcDbLine
 62
7
  6
CONTINUOUS
 10
136.8267903304
 20
108.6386745605
 11
136.3267347207
 21
108.4884683974
  0
LINE
  5
7D3
100
AcDbEntity
  8
_____1
100
AcDbLine
 62
7
  6
CONTINUOUS
 10
143.8664984449
 20
98.0908257133
 11
144.3663817998
 21
98.2410318765
  0
LINE
  5
7D4
100
AcDbEntity
  8
_____1
100
AcDbLine
 62
7
  6
CONTINUOUS
 10
143.8664984449
 20
92.2410535794
 11
143.3664428353
 21
92.0908474162
  0
LINE
  5
7D5
100
AcDbEntity
  8
_____1
100
AcDbLine
 62
7
  6
CONTINUOUS
 10
134.8267401464
 20
107.1386799862
 11
135.3267957561
 21
107.2885416398
  0
LINE
  5
7D6
100
AcDbEntity
  8
_____1
100
AcDbLine
 62
7
  6
CONTINUOUS
 10
136.8267903304
 20
106.2384765359
 11
136.3267347207
 21
106.0886148823
  0
LINE
  5
7D7
100
AcDbEntity
  8
_____1
100
AcDbLine
 62
7
  6
CONTINUOUS
 10
142.8663872256
 20
93.1409125201
 11
143.3664428353
 21
93.2907741737
  0
LINE
  5
7D8
100
AcDbEntity
  8
_____1
100
AcDbLine
 62
7
  6
CONTINUOUS
 10
391.3327025389
 20
401.2103080594
 11
392.8263236865
 21
401.5865124864
  0
LINE
  5
7D9
100
AcDbEntity
  8
_____1
100
AcDbLine
 62
7
  6
CONTINUOUS
 10
429.4218504786
 20
412.0473726726
 11
428.675987306
 21
411.8794242677
  0
LINE
  5
7DA
100
AcDbEntity
  8
_____1
100
AcDbLine
 62
7
  6
CONTINUOUS
 10
831.714952049
 20
401.9999239446
 11
831.444856563
 21
401.9999239446
  0
LINE
  5
7DB
100
AcDbEntity
  8
_____1
100
AcDbLine
 62
7
  6
CONTINUOUS
 10
831.444856563
 20
405.6000487267
 11
831.714952049
 21
405.6000487267
  0
LINE
  5
7DC
100
AcDbEntity
  8
_____1
100
AcDbLine
 62
7
  6
CONTINUOUS
 10
294.8884602127
 20
419.0400552338
 11
295.2415825
 21
419.0205904443
  0
LINE
  5
7DD
100
AcDbEntity
  8
_____1
100
AcDbLine
 62
7
  6
CONTINUOUS
 10
295.3001491232
 20
420.0796127965
 11
294.947026836
 21
420.0990775859
  0
LINE
  5
7DE
100
AcDbEntity
  8
_____1
100
AcDbLine
 62
7
  6
CONTINUOUS
 10
430.9597411032
 20
412.8960719454
 11
431.249129124
 21
412.8609319714
  0
LINE
  5
7DF
100
AcDbEntity
  8
_____1
100
AcDbLine
 62
7
  6
CONTINUOUS
 10
430.9910914721
 20
411.5965819284
 11
430.7017034514
 21
411.6318941571
  0
LINE
  5
7E0
100
AcDbEntity
  8
_____1
100
AcDbLine
 62
7
  6
CONTINUOUS
 10
430.0006265201
 20
411.9767482151
 11
429.4218504786
 21
412.0473726726
  0
LINE
  5
7E1
100
AcDbEntity
  8
_____1
100
AcDbLine
 62
7
  6
CONTINUOUS
 10
428.9340249579
 20
413.143602056
 11
428.6446369371
 21
413.1789142847
  0
LINE
  5
7E2
100
AcDbEntity
  8
_____1
100
AcDbLine
 62
7
  6
CONTINUOUS
 10
428.6446369371
 20
413.1789142847
 11
428.3552489163
 21
413.2143987682
  0
LINE
  5
7E3
100
AcDbEntity
  8
_____1
100
AcDbLine
 62
7
  6
CONTINUOUS
 10
430.2431612423
 20
413.890671012
 11
429.9537732215
 21
413.9261554955
  0
LINE
  5
7E4
100
AcDbEntity
  8
_____1
100
AcDbLine
 62
7
  6
CONTINUOUS
 10
292.7566351265
 20
419.5475177988
 11
292.3702676678
 21
419.6041896195
  0
LINE
  5
7E5
100
AcDbEntity
  8
_____1
100
AcDbLine
 62
7
  6
CONTINUOUS
 10
293.2876965955
 20
420.8282320454
 11
293.6740640542
 21
420.7715602247
  0
LINE
  5
7E6
100
AcDbEntity
  8
_____1
100
AcDbLine
 62
7
  6
CONTINUOUS
 10
293.1430025851
 20
419.4906737233
 11
292.7566351265
 21
419.5475177988
  0
LINE
  5
7E7
100
AcDbEntity
  8
_____1
100
AcDbLine
 62
7
  6
CONTINUOUS
 10
399.1725340799
 20
408.0651868012
 11
399.5539061501
 21
407.9804374523
  0
LINE
  5
7E8
100
AcDbEntity
  8
_____1
100
AcDbLine
 62
7
  6
CONTINUOUS
 10
399.7079019183
 20
406.3722668797
 11
399.3267021029
 21
406.4570162287
  0
LINE
  5
7E9
100
AcDbEntity
  8
_____1
100
AcDbLine
 62
7
  6
CONTINUOUS
 10
396.466583831
 20
408.0763833615
 11
396.8477836464
 21
407.9916340126
  0
LINE
  5
7EA
100
AcDbEntity
  8
_____1
100
AcDbLine
 62
7
  6
CONTINUOUS
 10
398.5997869555
 20
409.1762300952
 11
398.9809867709
 21
409.0914807463
  0
LINE
  5
7EB
100
AcDbEntity
  8
_____1
100
AcDbLine
 62
7
  6
CONTINUOUS
 10
403.9743081672
 20
408.5719603471
 11
403.5931083518
 21
408.656709696
  0
LINE
  5
7EC
100
AcDbEntity
  8
_____1
100
AcDbLine
 62
7
  6
CONTINUOUS
 10
400.7329900799
 20
410.2760768289
 11
401.1141898954
 21
410.1913274799
  0
LINE
  5
7ED
100
AcDbEntity
  8
_____1
100
AcDbLine
 62
7
  6
CONTINUOUS
 10
403.3243909039
 20
410.4870889273
 11
403.7055907194
 21
410.4023395784
  0
LINE
  5
7EE
100
AcDbEntity
  8
_____1
100
AcDbLine
 62
7
  6
CONTINUOUS
 10
344.8886812831
 20
417.0105494834
 11
345.1704900938
 21
416.9356186566
  0
LINE
  5
7EF
100
AcDbEntity
  8
_____1
100
AcDbLine
 62
7
  6
CONTINUOUS
 10
345.3010592127
 20
420.8938611144
 11
345.5828680234
 21
420.8189302876
  0
LINE
  5
7F0
100
AcDbEntity
  8
_____1
100
AcDbLine
 62
7
  6
CONTINUOUS
 10
284.471524994
 20
450.9891817449
 11
287.3693670614
 21
450.2128294773
  0
LINE
  5
7F1
100
AcDbEntity
  8
_____1
100
AcDbLine
 62
7
  6
CONTINUOUS
 10
286.8352050064
 20
455.9463296386
 11
287.8010375257
 21
455.6876029677
  0
LINE
  5
7F2
100
AcDbEntity
  8
_____1
100
AcDbLine
 62
7
  6
CONTINUOUS
 10
285.5415716517
 20
456.9142292152
 11
286.024401784
 21
456.7848658797
  0
LINE
  5
7F3
100
AcDbEntity
  8
_____1
100
AcDbLine
 62
7
  6
CONTINUOUS
 10
286.2833007097
 20
457.750698399
 11
285.8002983226
 21
457.8800617345
  0
LINE
  5
7F4
100
AcDbEntity
  8
_____1
100
AcDbLine
 62
7
  6
CONTINUOUS
 10
287.4904621677
 20
454.5285005917
 11
286.5244573936
 21
454.7873995174
  0
LINE
  5
7F5
100
AcDbEntity
  8
_____1
100
AcDbLine
 62
7
  6
CONTINUOUS
 10
432.2251246749
 20
410.6683009499
 11
432.5551648224
 21
410.5416936908
  0
LINE
  5
7F6
100
AcDbEntity
  8
_____1
100
AcDbLine
 62
7
  6
CONTINUOUS
 10
432.935503364
 20
411.5318141332
 11
432.6054632165
 21
411.6585936471
  0
LINE
  5
7F7
100
AcDbEntity
  8
_____1
100
AcDbLine
 62
7
  6
CONTINUOUS
 10
285.0151610616
 20
453.0176539666
 11
286.1837374502
 21
452.5492932354
  0
LINE
  5
7F8
100
AcDbEntity
  8
_____1
100
AcDbLine
 62
7
  6
CONTINUOUS
 10
430.7017034514
 20
411.6318941571
 11
430.350992731
 21
411.8043211861
  0
LINE
  5
7F9
100
AcDbEntity
  8
_____1
100
AcDbLine
 62
7
  6
CONTINUOUS
 10
428.3552489163
 20
413.2143987682
 11
428.0048827055
 21
413.3866535425
  0
LINE
  5
7FA
100
AcDbEntity
  8
_____1
100
AcDbLine
 62
7
  6
CONTINUOUS
 10
429.9537732215
 20
413.9261554955
 11
429.6034070107
 21
414.0984102697
  0
LINE
  5
7FB
100
AcDbEntity
  8
_____1
100
AcDbLine
 62
7
  6
CONTINUOUS
 10
430.350992731
 20
411.8043211861
 11
430.0006265201
 21
411.9767482151
  0
LINE
  5
7FC
100
AcDbEntity
  8
_____1
100
AcDbLine
 62
7
  6
CONTINUOUS
 10
431.249129124
 20
412.8609319714
 11
431.5994953348
 21
412.6885049424
  0
LINE
  5
7FD
100
AcDbEntity
  8
_____1
100
AcDbLine
 62
7
  6
CONTINUOUS
 10
430.2727890634
 20
415.0533907383
 11
430.6231552743
 21
414.8809637092
  0
LINE
  5
7FE
100
AcDbEntity
  8
_____1
100
AcDbLine
 62
7
  6
CONTINUOUS
 10
353.506932149
 20
450.9728175413
 11
353.8130288829
 21
450.7960841429
  0
LINE
  5
7FF
100
AcDbEntity
  8
_____1
100
AcDbLine
 62
7
  6
CONTINUOUS
 10
354.3434013329
 20
451.7145465993
 11
354.037304599
 21
451.8914522525
  0
LINE
  5
800
100
AcDbEntity
  8
_____1
100
AcDbLine
 62
7
  6
CONTINUOUS
 10
436.2331487625
 20
491.6890230433
 11
435.9730440533
 21
492.1417085901
  0
LINE
  5
801
100
AcDbEntity
  8
_____1
100
AcDbLine
 62
7
  6
CONTINUOUS
 10
436.9593748908
 20
491.0015542392
 11
436.6992701816
 21
491.454239786
  0
LINE
  5
802
100
AcDbEntity
  8
_____1
100
AcDbLine
 62
7
  6
CONTINUOUS
 10
437.7841307499
 20
491.8729911422
 11
438.0442354591
 21
491.4203055955
  0
LINE
  5
803
100
AcDbEntity
  8
_____1
100
AcDbLine
 62
7
  6
CONTINUOUS
 10
438.6092311186
 20
492.7444280452
 11
438.3491264095
 21
493.197113592
  0
LINE
  5
804
100
AcDbEntity
  8
_____1
100
AcDbLine
 62
7
  6
CONTINUOUS
 10
441.0841877152
 20
495.3587387542
 11
441.3442924244
 21
494.9060532074
  0
LINE
  5
805
100
AcDbEntity
  8
_____1
100
AcDbLine
 62
7
  6
CONTINUOUS
 10
437.8830049904
 20
493.4318968493
 11
437.6232447908
 21
493.8845823961
  0
LINE
  5
806
100
AcDbEntity
  8
_____1
100
AcDbLine
 62
7
  6
CONTINUOUS
 10
439.4343314874
 20
493.6158649482
 11
439.694091687
 21
493.1631794014
  0
LINE
  5
807
100
AcDbEntity
  8
_____1
100
AcDbLine
 62
7
  6
CONTINUOUS
 10
439.5328612182
 20
495.1747706553
 11
439.2731010187
 21
495.627456202
  0
LINE
  5
808
100
AcDbEntity
  8
_____1
100
AcDbLine
 62
7
  6
CONTINUOUS
 10
435.2089218747
 20
474.9139918518
 11
435.4407768009
 21
474.4463201396
  0
LINE
  5
809
100
AcDbEntity
  8
_____1
100
AcDbLine
 62
7
  6
CONTINUOUS
 10
435.402536241
 20
476.4639403106
 11
435.1706813148
 21
476.9316120227
  0
LINE
  5
80A
100
AcDbEntity
  8
_____1
100
AcDbLine
 62
7
  6
CONTINUOUS
 10
436.9621309671
 20
476.5529960289
 11
437.1939858933
 21
476.0853243167
  0
LINE
  5
80B
100
AcDbEntity
  8
_____1
100
AcDbLine
 62
7
  6
CONTINUOUS
 10
393.3100150926
 20
583.8000242681
 11
393.1749673496
 21
584.0999198301
  0
LINE
  5
80C
100
AcDbEntity
  8
_____1
100
AcDbLine
 62
7
  6
CONTINUOUS
 10
393.85003381
 20
586.8000134167
 11
393.9849092982
 21
586.4999455999
  0
LINE
  5
80D
100
AcDbEntity
  8
_____1
100
AcDbLine
 62
7
  6
CONTINUOUS
 10
500.4662650659
 20
362.4760659901
 11
500.1165878741
 21
363.9760605644
  0
LINE
  5
80E
100
AcDbEntity
  8
_____1
100
AcDbLine
 62
7
  6
CONTINUOUS
 10
562.4001246424
 20
586.4999455999
 11
562.4001246424
 21
582.5000174868
  0
LINE
  5
80F
100
AcDbEntity
  8
_____1
100
AcDbLine
 62
7
  6
CONTINUOUS
 10
509.0982963137
 20
118.7958495797
 11
509.8486381104
 21
121.7958387282
  0
LINE
  5
810
100
AcDbEntity
  8
_____1
100
AcDbLine
 62
7
  6
CONTINUOUS
 10
525.8986489571
 20
118.7958495797
 11
526.6486462442
 21
121.7958387282
  0
LINE
  5
811
100
AcDbEntity
  8
_____1
100
AcDbLine
 62
7
  6
CONTINUOUS
 10
517.048543165
 20
119.2960774441
 11
517.7985404521
 21
121.7958387282
  0
LINE
  5
812
100
AcDbEntity
  8
_____1
100
AcDbLine
 62
7
  6
CONTINUOUS
 10
477.3782686524
 20
86.5635362197
 11
489.2483451468
 21
120.295844154
  0
LINE
  5
813
100
AcDbEntity
  8
_____1
100
AcDbLine
 62
7
  6
CONTINUOUS
 10
337.1554754474
 20
407.9106742687
 11
335.6466958796
 21
407.6002711655
  0
LINE
  5
814
100
AcDbEntity
  8
_____1
100
AcDbLine
 62
7
  6
CONTINUOUS
 10
293.42929002
 20
419.5456229962
 11
293.1430025851
 21
419.4906737233
  0
LINE
  5
815
100
AcDbEntity
  8
_____1
100
AcDbLine
 62
7
  6
CONTINUOUS
 10
292.3702676678
 20
419.6041896195
 11
291.7976927981
 21
419.4942910735
  0
LINE
  5
816
100
AcDbEntity
  8
_____1
100
AcDbLine
 62
7
  6
CONTINUOUS
 10
293.0014091607
 20
420.7732827724
 11
293.2876965955
 21
420.8282320454
  0
LINE
  5
817
100
AcDbEntity
  8
_____1
100
AcDbLine
 62
7
  6
CONTINUOUS
 10
209.0642414842
 20
411.3872923776
 11
208.7748534634
 21
411.3518078941
  0
LINE
  5
818
100
AcDbEntity
  8
_____1
100
AcDbLine
 62
7
  6
CONTINUOUS
 10
208.5777940017
 20
412.7531004827
 11
208.8671820224
 21
412.7885849662
  0
LINE
  5
819
100
AcDbEntity
  8
_____1
100
AcDbLine
 62
7
  6
CONTINUOUS
 10
208.2884059809
 20
412.717788254
 11
208.5777940017
 21
412.7531004827
  0
LINE
  5
81A
100
AcDbEntity
  8
_____1
100
AcDbLine
 62
7
  6
CONTINUOUS
 10
207.1465290823
 20
413.2262843476
 11
207.4359171031
 21
413.2615965764
  0
LINE
  5
81B
100
AcDbEntity
  8
_____1
100
AcDbLine
 62
7
  6
CONTINUOUS
 10
208.1226968881
 20
415.4187431145
 11
208.4120849088
 21
415.4540553432
  0
LINE
  5
81C
100
AcDbEntity
  8
_____1
100
AcDbLine
 62
7
  6
CONTINUOUS
 10
344.9115911681
 20
420.864405548
 11
345.3010592127
 21
420.8938611144
  0
LINE
  5
81D
100
AcDbEntity
  8
_____1
100
AcDbLine
 62
7
  6
CONTINUOUS
 10
829.5001001615
 20
439.4999605564
 11
833.3000404818
 21
439.4999605564
  0
LINE
  5
81E
100
AcDbEntity
  8
_____1
100
AcDbLine
 62
7
  6
CONTINUOUS
 10
346.0348645511
 20
422.6508598119
 11
345.6812254995
 21
422.6560274551
  0
LINE
  5
81F
100
AcDbEntity
  8
_____1
100
AcDbLine
 62
7
  6
CONTINUOUS
 10
345.6652058055
 20
421.5956270647
 11
346.0188448571
 21
421.590114912
  0
LINE
  5
820
100
AcDbEntity
  8
_____1
100
AcDbLine
 62
7
  6
CONTINUOUS
 10
319.1164387223
 20
474.1820813159
 11
320.6067870292
 21
473.7933022904
  0
LINE
  5
821
100
AcDbEntity
  8
_____1
100
AcDbLine
 62
7
  6
CONTINUOUS
 10
350.945331401
 20
451.8394313107
 11
350.6650728833
 21
451.9195297807
  0
LINE
  5
822
100
AcDbEntity
  8
_____1
100
AcDbLine
 62
7
  6
CONTINUOUS
 10
352.6442802395
 20
453.2262544982
 11
352.9245387573
 21
453.1461560282
  0
LINE
  5
823
100
AcDbEntity
  8
_____1
100
AcDbLine
 62
7
  6
CONTINUOUS
 10
350.3629380092
 20
454.0125975427
 11
350.0826794915
 21
454.0928682676
  0
LINE
  5
824
100
AcDbEntity
  8
_____1
100
AcDbLine
 62
7
  6
CONTINUOUS
 10
436.0354002816
 20
488.5712116292
 11
433.8570664063
 21
490.6336180414
  0
LINE
  5
825
100
AcDbEntity
  8
_____1
100
AcDbLine
 62
7
  6
CONTINUOUS
 10
434.52575944
 20
475.6443520946
 11
435.2089218747
 21
474.9139918518
  0
LINE
  5
826
100
AcDbEntity
  8
_____1
100
AcDbLine
 62
7
  6
CONTINUOUS
 10
431.5092338331
 20
470.0856905292
 11
429.4600910385
 21
472.2771157673
  0
LINE
  5
827
100
AcDbEntity
  8
_____1
100
AcDbLine
 62
7
  6
CONTINUOUS
 10
436.2789685324
 20
477.2835285265
 11
436.9621309671
 21
476.5529960289
  0
LINE
  5
828
100
AcDbEntity
  8
_____1
100
AcDbLine
 62
7
  6
CONTINUOUS
 10
434.3321450737
 20
474.0944036358
 11
433.6493271485
 21
474.8247638787
  0
LINE
  5
829
100
AcDbEntity
  8
_____1
100
AcDbLine
 62
7
  6
CONTINUOUS
 10
436.0853541662
 20
475.7335800677
 11
435.402536241
 21
476.4639403106
  0
LINE
  5
82A
100
AcDbEntity
  8
_____1
100
AcDbLine
 62
7
  6
CONTINUOUS
 10
430.6782768021
 20
472.7315238619
 11
431.0196857646
 21
472.3661714856
  0
LINE
  5
82B
100
AcDbEntity
  8
_____1
100
AcDbLine
 62
7
  6
CONTINUOUS
 10
432.5792804908
 20
472.4552272039
 11
431.8964625656
 21
473.1857597016
  0
LINE
  5
82C
100
AcDbEntity
  8
_____1
100
AcDbLine
 62
7
  6
CONTINUOUS
 10
326.945073703
 20
583.4999564513
 11
326.6749782169
 21
583.8000242681
  0
LINE
  5
82D
100
AcDbEntity
  8
_____1
100
AcDbLine
 62
7
  6
CONTINUOUS
 10
327.2149969343
 20
585.8999822211
 11
327.4849201655
 21
585.5999144044
  0
LINE
  5
82E
100
AcDbEntity
  8
_____1
100
AcDbLine
 62
7
  6
CONTINUOUS
 10
593.6199244393
 20
585.8999822211
 11
593.6199244393
 21
584.7000554636
  0
LINE
  5
82F
100
AcDbEntity
  8
_____1
100
AcDbLine
 62
7
  6
CONTINUOUS
 10
662.2799884412
 20
584.7000554636
 11
662.1449406982
 21
584.0999198301
  0
LINE
  5
830
100
AcDbEntity
  8
_____1
100
AcDbLine
 62
7
  6
CONTINUOUS
 10
661.1999510066
 20
585.8999822211
 11
661.3349987496
 21
586.4999455999
  0
LINE
  5
831
100
AcDbEntity
  8
_____1
100
AcDbLine
 62
7
  6
CONTINUOUS
 10
495.7485513084
 20
120.5459580862
 11
495.898412962
 21
120.7960720184
  0
LINE
  5
832
100
AcDbEntity
  8
_____1
100
AcDbLine
 62
7
  6
CONTINUOUS
 10
495.7485513084
 20
118.7958495797
 11
495.898412962
 21
119.0459635119
  0
LINE
  5
833
100
AcDbEntity
  8
_____1
100
AcDbLine
 62
7
  6
CONTINUOUS
 10
507.8983695562
 20
119.2960774441
 11
507.7485079026
 21
119.0459635119
  0
LINE
  5
834
100
AcDbEntity
  8
_____1
100
AcDbLine
 62
7
  6
CONTINUOUS
 10
515.248480774
 20
119.2960774441
 11
515.0986191204
 21
119.0459635119
  0
LINE
  5
835
100
AcDbEntity
  8
_____1
100
AcDbLine
 62
7
  6
CONTINUOUS
 10
522.4483858286
 20
120.7960720184
 11
522.298524175
 21
120.5459580862
  0
LINE
  5
836
100
AcDbEntity
  8
_____1
100
AcDbLine
 62
7
  6
CONTINUOUS
 10
495.898412962
 20
119.0459635119
 11
496.0486191251
 21
119.2960774441
  0
LINE
  5
837
100
AcDbEntity
  8
_____1
100
AcDbLine
 62
7
  6
CONTINUOUS
 10
499.7986055608
 20
121.5460693056
 11
499.6483993977
 21
121.2959553733
  0
LINE
  5
838
100
AcDbEntity
  8
_____1
100
AcDbLine
 62
7
  6
CONTINUOUS
 10
500.8486706647
 20
119.2960774441
 11
500.6984645016
 21
119.0459635119
  0
LINE
  5
839
100
AcDbEntity
  8
_____1
100
AcDbLine
 62
7
  6
CONTINUOUS
 10
508.0485757193
 20
119.5458468668
 11
507.8983695562
 21
119.2960774441
  0
LINE
  5
83A
100
AcDbEntity
  8
_____1
100
AcDbLine
 62
7
  6
CONTINUOUS
 10
477.3782686524
 20
86.5635362197
 11
478.206469607
 21
87.8623372176
  0
LINE
  5
83B
100
AcDbEntity
  8
_____1
100
AcDbLine
 62
7
  6
CONTINUOUS
 10
354.037304599
 20
451.8914522525
 11
353.554302212
 21
451.7619166622
  0
LINE
  5
83C
100
AcDbEntity
  8
_____1
100
AcDbLine
 62
7
  6
CONTINUOUS
 10
352.001425422
 20
457.5576007971
 11
349.1035833546
 21
456.7810762747
  0
LINE
  5
83D
100
AcDbEntity
  8
_____1
100
AcDbLine
 62
7
  6
CONTINUOUS
 10
353.8130288829
 20
450.7960841429
 11
354.2960312699
 21
450.9254474784
  0
LINE
  5
83E
100
AcDbEntity
  8
_____1
100
AcDbLine
 62
7
  6
CONTINUOUS
 10
352.4330958863
 20
452.0826550519
 11
351.4670911122
 21
451.823928381
  0
LINE
  5
83F
100
AcDbEntity
  8
_____1
100
AcDbLine
 62
7
  6
CONTINUOUS
 10
351.1565157542
 20
452.983030757
 11
352.1225205283
 21
453.2417574279
  0
LINE
  5
840
100
AcDbEntity
  8
_____1
100
AcDbLine
 62
7
  6
CONTINUOUS
 10
432.5052109379
 20
473.4129637488
 11
433.0047497832
 21
473.5376762054
  0
LINE
  5
841
100
AcDbEntity
  8
_____1
100
AcDbLine
 62
7
  6
CONTINUOUS
 10
352.5448892348
 20
455.5291285754
 11
351.298625943
 21
455.3503281197
  0
LINE
  5
842
100
AcDbEntity
  8
_____1
100
AcDbLine
 62
7
  6
CONTINUOUS
 10
431.6515162766
 20
474.3259140524
 11
432.0415010856
 21
474.3483071731
  0
LINE
  5
843
100
AcDbEntity
  8
_____1
100
AcDbLine
 62
7
  6
CONTINUOUS
 10
437.2067327466
 20
475.412841678
 11
436.8167479377
 21
475.3904485574
  0
LINE
  5
844
100
AcDbEntity
  8
_____1
100
AcDbLine
 62
7
  6
CONTINUOUS
 10
433.7003145617
 20
472.134661069
 11
433.3106742623
 21
472.1124402032
  0
LINE
  5
845
100
AcDbEntity
  8
_____1
100
AcDbLine
 62
7
  6
CONTINUOUS
 10
430.0082057302
 20
472.789401466
 11
430.3978460296
 21
472.8116223319
  0
LINE
  5
846
100
AcDbEntity
  8
_____1
100
AcDbLine
 62
7
  6
CONTINUOUS
 10
435.4535236542
 20
473.7736652461
 11
435.0638833548
 21
473.7514443803
  0
LINE
  5
847
100
AcDbEntity
  8
_____1
100
AcDbLine
 62
7
  6
CONTINUOUS
 10
433.4047253691
 20
475.9650904843
 11
433.794710178
 21
475.9873113502
  0
LINE
  5
848
100
AcDbEntity
  8
_____1
100
AcDbLine
 62
7
  6
CONTINUOUS
 10
435.1579344615
 20
477.6042669162
 11
435.5475747609
 21
477.6264877821
  0
LINE
  5
849
100
AcDbEntity
  8
_____1
100
AcDbLine
 62
7
  6
CONTINUOUS
 10
286.6968844227
 20
453.4987615511
 11
287.2186441339
 21
453.5142644808
  0
LINE
  5
84A
100
AcDbEntity
  8
_____1
100
AcDbLine
 62
7
  6
CONTINUOUS
 10
288.012221879
 20
454.5440035213
 11
287.4904621677
 21
454.5285005917
  0
LINE
  5
84B
100
AcDbEntity
  8
_____1
100
AcDbLine
 62
7
  6
CONTINUOUS
 10
286.3132730404
 20
455.9308267089
 11
286.8352050064
 21
455.9463296386
  0
LINE
  5
84C
100
AcDbEntity
  8
_____1
100
AcDbLine
 62
7
  6
CONTINUOUS
 10
830.9050101004
 20
471.9999578356
 11
831.849999792
 21
471.9999578356
  0
LINE
  5
84D
100
AcDbEntity
  8
_____1
100
AcDbLine
 62
7
  6
CONTINUOUS
 10
830.9050101004
 20
474.0999157886
 11
831.849999792
 21
474.0999157886
  0
LINE
  5
84E
100
AcDbEntity
  8
_____1
100
AcDbLine
 62
7
  6
CONTINUOUS
 10
831.849999792
 20
475.5999103629
 11
830.9050101004
 21
475.5999103629
  0
LINE
  5
84F
100
AcDbEntity
  8
_____1
100
AcDbLine
 62
7
  6
CONTINUOUS
 10
350.8848699752
 20
453.9972668678
 11
350.3629380092
 21
454.0125975427
  0
LINE
  5
850
100
AcDbEntity
  8
_____1
100
AcDbLine
 62
7
  6
CONTINUOUS
 10
351.4670911122
 20
451.823928381
 11
350.945331401
 21
451.8394313107
  0
LINE
  5
851
100
AcDbEntity
  8
_____1
100
AcDbLine
 62
7
  6
CONTINUOUS
 10
352.1225205283
 20
453.2417574279
 11
352.6442802395
 21
453.2262544982
  0
LINE
  5
852
100
AcDbEntity
  8
_____1
100
AcDbLine
 62
7
  6
CONTINUOUS
 10
319.1164387223
 20
474.1820813159
 11
317.6078314093
 21
474.4931734382
  0
LINE
  5
853
100
AcDbEntity
  8
_____1
100
AcDbLine
 62
7
  6
CONTINUOUS
 10
319.1164387223
 20
480.547584244
 11
317.614204836
 21
480.8877874232
  0
LINE
  5
854
100
AcDbEntity
  8
_____1
100
AcDbLine
 62
7
  6
CONTINUOUS
 10
319.1164387223
 20
480.547584244
 11
320.6141939845
 21
480.1879162754
  0
LINE
  5
855
100
AcDbEntity
  8
_____1
100
AcDbLine
 62
7
  6
CONTINUOUS
 10
430.3978460296
 20
472.8116223319
 11
430.6782768021
 21
472.7315238619
  0
LINE
  5
856
100
AcDbEntity
  8
_____1
100
AcDbLine
 62
7
  6
CONTINUOUS
 10
433.3106742623
 20
472.1124402032
 11
433.0302434898
 21
472.1925386732
  0
LINE
  5
857
100
AcDbEntity
  8
_____1
100
AcDbLine
 62
7
  6
CONTINUOUS
 10
435.0638833548
 20
473.7514443803
 11
434.7834525823
 21
473.8315428503
  0
LINE
  5
858
100
AcDbEntity
  8
_____1
100
AcDbLine
 62
7
  6
CONTINUOUS
 10
435.5475747609
 20
477.6264877821
 11
435.8280055334
 21
477.546389312
  0
LINE
  5
859
100
AcDbEntity
  8
_____1
100
AcDbLine
 62
7
  6
CONTINUOUS
 10
433.794710178
 20
475.9873113502
 11
434.074796441
 21
475.9072128802
  0
LINE
  5
85A
100
AcDbEntity
  8
_____1
100
AcDbLine
 62
7
  6
CONTINUOUS
 10
436.8167479377
 20
475.3904485574
 11
436.5363171652
 21
475.4707192822
  0
LINE
  5
85B
100
AcDbEntity
  8
_____1
100
AcDbLine
 62
7
  6
CONTINUOUS
 10
432.0415010856
 20
474.3483071731
 11
432.3215873485
 21
474.2680364483
  0
LINE
  5
85C
100
AcDbEntity
  8
_____1
100
AcDbLine
 62
7
  6
CONTINUOUS
 10
435.4617918833
 20
490.1471705589
 11
436.8605006503
 21
489.4426485322
  0
LINE
  5
85D
100
AcDbEntity
  8
_____1
100
AcDbLine
 62
7
  6
CONTINUOUS
 10
433.0302434898
 20
472.1925386732
 11
432.5792804908
 21
472.4552272039
  0
LINE
  5
85E
100
AcDbEntity
  8
_____1
100
AcDbLine
 62
7
  6
CONTINUOUS
 10
434.7834525823
 20
473.8315428503
 11
434.3321450737
 21
474.0944036358
  0
LINE
  5
85F
100
AcDbEntity
  8
_____1
100
AcDbLine
 62
7
  6
CONTINUOUS
 10
431.0324326179
 20
471.6936888469
 11
432.3856661245
 21
470.9052787451
  0
LINE
  5
860
100
AcDbEntity
  8
_____1
100
AcDbLine
 62
7
  6
CONTINUOUS
 10
433.0047497832
 20
473.5376762054
 11
433.4557127823
 21
473.2748154199
  0
LINE
  5
861
100
AcDbEntity
  8
_____1
100
AcDbLine
 62
7
  6
CONTINUOUS
 10
434.074796441
 20
475.9072128802
 11
434.52575944
 21
475.6443520946
  0
LINE
  5
862
100
AcDbEntity
  8
_____1
100
AcDbLine
 62
7
  6
CONTINUOUS
 10
436.5363171652
 20
475.4707192822
 11
436.0853541662
 21
475.7335800677
  0
LINE
  5
863
100
AcDbEntity
  8
_____1
100
AcDbLine
 62
7
  6
CONTINUOUS
 10
435.8280055334
 20
477.546389312
 11
436.2789685324
 21
477.2835285265
  0
LINE
  5
864
100
AcDbEntity
  8
_____1
100
AcDbLine
 62
7
  6
CONTINUOUS
 10
436.9593748908
 20
491.0015542392
 11
436.2331487625
 21
491.6890230433
  0
LINE
  5
865
100
AcDbEntity
  8
_____1
100
AcDbLine
 62
7
  6
CONTINUOUS
 10
438.6092311186
 20
492.7444280452
 11
437.8830049904
 21
493.4318968493
  0
LINE
  5
866
100
AcDbEntity
  8
_____1
100
AcDbLine
 62
7
  6
CONTINUOUS
 10
440.2590873465
 20
494.4873018512
 11
439.5328612182
 21
495.1747706553
  0
LINE
  5
867
100
AcDbEntity
  8
_____1
100
AcDbLine
 62
7
  6
CONTINUOUS
 10
440.357961587
 20
496.0462075583
 11
441.0841877152
 21
495.3587387542
  0
LINE
  5
868
100
AcDbEntity
  8
_____1
100
AcDbLine
 62
7
  6
CONTINUOUS
 10
435.0449353296
 20
491.1614066697
 11
435.4080483938
 21
490.8175861403
  0
LINE
  5
869
100
AcDbEntity
  8
_____1
100
AcDbLine
 62
7
  6
CONTINUOUS
 10
393.5799383239
 20
587.1000812334
 11
393.85003381
 21
586.8000134167
  0
LINE
  5
86A
100
AcDbEntity
  8
_____1
100
AcDbLine
 62
7
  6
CONTINUOUS
 10
393.5799383239
 20
583.4999564513
 11
393.3100150926
 21
583.8000242681
  0
LINE
  5
86B
100
AcDbEntity
  8
_____1
100
AcDbLine
 62
7
  6
CONTINUOUS
 10
629.1998370823
 20
586.4999455999
 11
629.1998370823
 21
582.5000174868
  0
LINE
  5
86C
100
AcDbEntity
  8
_____1
100
AcDbLine
 62
7
  6
CONTINUOUS
 10
500.6984645016
 20
119.0459635119
 11
500.3983966848
 21
118.7958495797
  0
LINE
  5
86D
100
AcDbEntity
  8
_____1
100
AcDbLine
 62
7
  6
CONTINUOUS
 10
507.7485079026
 20
119.0459635119
 11
507.4484400858
 21
118.7958495797
  0
LINE
  5
86E
100
AcDbEntity
  8
_____1
100
AcDbLine
 62
7
  6
CONTINUOUS
 10
515.0986191204
 20
119.0459635119
 11
514.7985513036
 21
118.7958495797
  0
LINE
  5
86F
100
AcDbEntity
  8
_____1
100
AcDbLine
 62
7
  6
CONTINUOUS
 10
522.298524175
 20
120.5459580862
 11
521.9984563582
 21
120.295844154
  0
LINE
  5
870
100
AcDbEntity
  8
_____1
100
AcDbLine
 62
7
  6
CONTINUOUS
 10
500.098328868
 20
121.7958387282
 11
499.7986055608
 21
121.5460693056
  0
LINE
  5
871
100
AcDbEntity
  8
_____1
100
AcDbLine
 62
7
  6
CONTINUOUS
 10
317.6260904154
 20
473.7933022904
 11
319.1164387223
 21
474.1820813159
  0
LINE
  5
872
100
AcDbEntity
  8
_____1
100
AcDbLine
 62
7
  6
CONTINUOUS
 10
317.6186834601
 20
480.1879162754
 11
319.1164387223
 21
480.547584244
  0
LINE
  5
873
100
AcDbEntity
  8
_____1
100
AcDbLine
 62
7
  6
CONTINUOUS
 10
320.6186726086
 20
480.8877874232
 11
319.1164387223
 21
480.547584244
  0
LINE
  5
874
100
AcDbEntity
  8
_____1
100
AcDbLine
 62
7
  6
CONTINUOUS
 10
320.6250460353
 20
474.4931734382
 11
319.1164387223
 21
474.1820813159
  0
LINE
  5
875
100
AcDbEntity
  8
_____1
100
AcDbLine
 62
7
  6
CONTINUOUS
 10
439.7478351765
 20
492.49276382
 11
439.3602619344
 21
492.4467717953
  0
LINE
  5
876
100
AcDbEntity
  8
_____1
100
AcDbLine
 62
7
  6
CONTINUOUS
 10
437.5695013012
 20
494.5551702323
 11
437.9570745433
 21
494.601162257
  0
LINE
  5
877
100
AcDbEntity
  8
_____1
100
AcDbLine
 62
7
  6
CONTINUOUS
 10
434.3724526909
 20
491.1782876376
 11
434.7603704425
 21
491.2242796624
  0
LINE
  5
878
100
AcDbEntity
  8
_____1
100
AcDbLine
 62
7
  6
CONTINUOUS
 10
435.9193005638
 20
492.8122964263
 11
436.3072183154
 21
492.858288451
  0
LINE
  5
879
100
AcDbEntity
  8
_____1
100
AcDbLine
 62
7
  6
CONTINUOUS
 10
439.2193575291
 20
496.2980440383
 11
439.6072752807
 21
496.344036063
  0
LINE
  5
87A
100
AcDbEntity
  8
_____1
100
AcDbLine
 62
7
  6
CONTINUOUS
 10
438.0979789486
 20
490.7497177593
 11
437.7104057065
 21
490.7038979893
  0
LINE
  5
87B
100
AcDbEntity
  8
_____1
100
AcDbLine
 62
7
  6
CONTINUOUS
 10
441.398035914
 20
494.2354653712
 11
441.0101181623
 21
494.1896456013
  0
LINE
  5
87C
100
AcDbEntity
  8
_____1
100
AcDbLine
 62
7
  6
CONTINUOUS
 10
437.7104057065
 20
490.7038979893
 11
437.4254963099
 21
490.7667709819
  0
LINE
  5
87D
100
AcDbEntity
  8
_____1
100
AcDbLine
 62
7
  6
CONTINUOUS
 10
439.3602619344
 20
492.4467717953
 11
439.0753525378
 21
492.5096447879
  0
LINE
  5
87E
100
AcDbEntity
  8
_____1
100
AcDbLine
 62
7
  6
CONTINUOUS
 10
434.7603704425
 20
491.2242796624
 11
435.0449353296
 21
491.1614066697
  0
LINE
  5
87F
100
AcDbEntity
  8
_____1
100
AcDbLine
 62
7
  6
CONTINUOUS
 10
436.3072183154
 20
492.858288451
 11
436.5917832025
 21
492.7954154584
  0
LINE
  5
880
100
AcDbEntity
  8
_____1
100
AcDbLine
 62
7
  6
CONTINUOUS
 10
441.0101181623
 20
494.1896456013
 11
440.7255532752
 21
494.2525185939
  0
LINE
  5
881
100
AcDbEntity
  8
_____1
100
AcDbLine
 62
7
  6
CONTINUOUS
 10
439.6072752807
 20
496.344036063
 11
439.8918401678
 21
496.2811630704
  0
LINE
  5
882
100
AcDbEntity
  8
_____1
100
AcDbLine
 62
7
  6
CONTINUOUS
 10
437.9570745433
 20
494.601162257
 11
438.2416394304
 21
494.5381170096
  0
LINE
  5
883
100
AcDbEntity
  8
_____1
100
AcDbLine
 62
7
  6
CONTINUOUS
 10
438.9678655587
 20
493.8506482055
 11
439.4343314874
 21
493.6158649482
  0
LINE
  5
884
100
AcDbEntity
  8
_____1
100
AcDbLine
 62
7
  6
CONTINUOUS
 10
440.7255532752
 20
494.2525185939
 11
440.2590873465
 21
494.4873018512
  0
LINE
  5
885
100
AcDbEntity
  8
_____1
100
AcDbLine
 62
7
  6
CONTINUOUS
 10
437.4254963099
 20
490.7667709819
 11
436.9593748908
 21
491.0015542392
  0
LINE
  5
886
100
AcDbEntity
  8
_____1
100
AcDbLine
 62
7
  6
CONTINUOUS
 10
437.3180093308
 20
492.1077743995
 11
437.7841307499
 21
491.8729911422
  0
LINE
  5
887
100
AcDbEntity
  8
_____1
100
AcDbLine
 62
7
  6
CONTINUOUS
 10
439.0753525378
 20
492.5096447879
 11
438.6092311186
 21
492.7444280452
  0
LINE
  5
888
100
AcDbEntity
  8
_____1
100
AcDbLine
 62
7
  6
CONTINUOUS
 10
439.8918401678
 20
496.2811630704
 11
440.357961587
 21
496.0462075583
  0
LINE
  5
889
100
AcDbEntity
  8
_____1
100
AcDbLine
 62
7
  6
CONTINUOUS
 10
831.714952049
 20
124.6001464532
 11
831.9850475351
 21
124.3000786365
  0
LINE
  5
88A
100
AcDbEntity
  8
_____1
100
AcDbLine
 62
7
  6
CONTINUOUS
 10
831.444856563
 20
121.0000216711
 11
831.1751055865
 21
121.3000894879
  0
LINE
  5
88B
100
AcDbEntity
  8
_____1
100
AcDbLine
 62
7
  6
CONTINUOUS
 10
798.6830320269
 20
584.9937498538
 11
798.4132810504
 21
584.3936142202
  0
LINE
  5
88C
100
AcDbEntity
  8
_____1
100
AcDbLine
 62
7
  6
CONTINUOUS
 10
798.2782333074
 20
586.493744428
 11
798.4132810504
 21
586.79363999
  0
LINE
  5
88D
100
AcDbEntity
  8
_____1
100
AcDbLine
 62
7
  6
CONTINUOUS
 10
799.3579262325
 20
585.8936087945
 11
799.2228784894
 21
585.5937132325
  0
LINE
  5
88E
100
AcDbEntity
  8
_____1
100
AcDbLine
 62
7
  6
CONTINUOUS
 10
831.1751055865
 20
405.29998091
 11
831.444856563
 21
405.6000487267
  0
LINE
  5
88F
100
AcDbEntity
  8
_____1
100
AcDbLine
 62
7
  6
CONTINUOUS
 10
831.9850475351
 20
402.2999917614
 11
831.714952049
 21
401.9999239446
  0
LINE
  5
890
100
AcDbEntity
  8
_____1
100
AcDbLine
 62
7
  6
CONTINUOUS
 10
829.5001001615
 20
509.4999944473
 11
833.3000404818
 21
509.4999944473
  0
LINE
  5
891
100
AcDbEntity
  8
_____1
100
AcDbLine
 62
7
  6
CONTINUOUS
 10
393.5799383239
 20
585.5999144044
 11
393.9849092982
 21
585.3000188424
  0
LINE
  5
892
100
AcDbEntity
  8
_____1
100
AcDbLine
 62
7
  6
CONTINUOUS
 10
526.174945615
 20
583.8000242681
 11
525.9048501289
 21
584.3999876469
  0
LINE
  5
893
100
AcDbEntity
  8
_____1
100
AcDbLine
 62
7
  6
CONTINUOUS
 10
526.174945615
 20
585.8999822211
 11
526.039897872
 21
586.2000500379
  0
LINE
  5
894
100
AcDbEntity
  8
_____1
100
AcDbLine
 62
7
  6
CONTINUOUS
 10
526.9848875636
 20
585.3000188424
 11
527.2549830496
 21
584.7000554636
  0
LINE
  5
895
100
AcDbEntity
  8
_____1
100
AcDbLine
 62
7
  6
CONTINUOUS
 10
526.9848875636
 20
586.8000134167
 11
527.1199353066
 21
586.4999455999
  0
LINE
  5
896
100
AcDbEntity
  8
_____1
100
AcDbLine
 62
7
  6
CONTINUOUS
 10
592.6749347477
 20
585.3000188424
 11
592.5398870046
 21
585.8999822211
  0
LINE
  5
897
100
AcDbEntity
  8
_____1
100
AcDbLine
 62
7
  6
CONTINUOUS
 10
593.4848766962
 20
586.4999455999
 11
593.6199244393
 21
585.8999822211
  0
LINE
  5
898
100
AcDbEntity
  8
_____1
100
AcDbLine
 62
7
  6
CONTINUOUS
 10
659.5800671094
 20
587.1000812334
 11
659.5800671094
 21
583.4999564513
  0
LINE
  5
899
100
AcDbEntity
  8
_____1
100
AcDbLine
 62
7
  6
CONTINUOUS
 10
661.1999510066
 20
584.7000554636
 11
661.1999510066
 21
585.8999822211
  0
LINE
  5
89A
100
AcDbEntity
  8
_____1
100
AcDbLine
 62
7
  6
CONTINUOUS
 10
662.2799884412
 20
585.8999822211
 11
662.2799884412
 21
584.7000554636
  0
LINE
  5
89B
100
AcDbEntity
  8
_____1
100
AcDbLine
 62
7
  6
CONTINUOUS
 10
831.1751055865
 20
544.2000297034
 11
831.9850475351
 21
544.2000297034
  0
LINE
  5
89C
100
AcDbEntity
  8
_____1
100
AcDbLine
 62
7
  6
CONTINUOUS
 10
695.9998940317
 20
582.5000174868
 11
695.9998940317
 21
586.4999455999
  0
LINE
  5
89D
100
AcDbEntity
  8
_____1
100
AcDbLine
 62
7
  6
CONTINUOUS
 10
831.849999792
 20
332.2999578705
 11
831.579904306
 21
332.0000623085
  0
LINE
  5
89E
100
AcDbEntity
  8
_____1
100
AcDbLine
 62
7
  6
CONTINUOUS
 10
27.0000745918
 20
582.5000174868
 11
829.5001001615
 21
582.5000174868
  0
LINE
  5
89F
100
AcDbEntity
  8
_____1
100
AcDbLine
 62
7
  6
CONTINUOUS
 10
127.8881455843
 20
583.4425956115
 11
128.968183019
 21
583.4425956115
  0
LINE
  5
8A0
100
AcDbEntity
  8
_____1
100
AcDbLine
 62
7
  6
CONTINUOUS
 10
798.2782333074
 20
583.4937552795
 11
799.3579262325
 21
583.4937552795
  0
LINE
  5
8A1
100
AcDbEntity
  8
_____1
100
AcDbLine
 62
7
  6
CONTINUOUS
 10
526.7151365871
 20
583.4999564513
 11
526.445041101
 21
583.4999564513
  0
LINE
  5
8A2
100
AcDbEntity
  8
_____1
100
AcDbLine
 62
7
  6
CONTINUOUS
 10
327.2149969343
 20
583.4999564513
 11
326.945073703
 21
583.4999564513
  0
LINE
  5
8A3
100
AcDbEntity
  8
_____1
100
AcDbLine
 62
7
  6
CONTINUOUS
 10
194.2150186689
 20
583.4999564513
 11
193.9450954376
 21
583.4999564513
  0
LINE
  5
8A4
100
AcDbEntity
  8
_____1
100
AcDbLine
 62
7
  6
CONTINUOUS
 10
260.0399413412
 20
584.3999876469
 11
261.2550265189
 21
584.3999876469
  0
LINE
  5
8A5
100
AcDbEntity
  8
_____1
100
AcDbLine
 62
7
  6
CONTINUOUS
 10
193.9450954376
 20
585.5999144044
 11
194.2150186689
 21
585.5999144044
  0
LINE
  5
8A6
100
AcDbEntity
  8
_____1
100
AcDbLine
 62
7
  6
CONTINUOUS
 10
526.445041101
 20
585.5999144044
 11
526.7151365871
 21
585.5999144044
  0
LINE
  5
8A7
100
AcDbEntity
  8
_____1
100
AcDbLine
 62
7
  6
CONTINUOUS
 10
326.945073703
 20
585.8999822211
 11
327.2149969343
 21
585.8999822211
  0
LINE
  5
8A8
100
AcDbEntity
  8
_____1
100
AcDbLine
 62
7
  6
CONTINUOUS
 10
128.2931165586
 20
587.0425481388
 11
128.5630397899
 21
587.0425481388
  0
LINE
  5
8A9
100
AcDbEntity
  8
_____1
100
AcDbLine
 62
7
  6
CONTINUOUS
 10
798.6830320269
 20
587.0937078068
 11
798.9531275129
 21
587.0937078068
  0
LINE
  5
8AA
100
AcDbEntity
  8
_____1
100
AcDbLine
 62
7
  6
CONTINUOUS
 10
460.6199461739
 20
587.1000812334
 11
459.5399087393
 21
587.1000812334
  0
LINE
  5
8AB
100
AcDbEntity
  8
_____1
100
AcDbLine
 62
7
  6
CONTINUOUS
 10
327.6199679085
 20
587.1000812334
 11
326.81002596
 21
587.1000812334
  0
LINE
  5
8AC
100
AcDbEntity
  8
_____1
100
AcDbLine
 62
7
  6
CONTINUOUS
 10
193.9450954376
 20
587.1000812334
 11
194.2150186689
 21
587.1000812334
  0
LINE
  5
8AD
100
AcDbEntity
  8
_____1
100
AcDbLine
 62
7
  6
CONTINUOUS
 10
526.445041101
 20
587.1000812334
 11
526.7151365871
 21
587.1000812334
  0
LINE
  5
8AE
100
AcDbEntity
  8
0
100
AcDbLine
 62
7
  6
CONTINUOUS
 10
0.0
 20
593.9999184713
 11
841.0001734009
 21
593.9999184713
  0
LINE
  5
8AF
100
AcDbEntity
  8
_____1
100
AcDbLine
 62
7
  6
CONTINUOUS
 10
0.0
 20
593.9999184713
 11
841.0001734009
 21
593.9999184713
  0
LINE
  5
8B0
100
AcDbEntity
  8
_____1
100
AcDbLine
 62
7
  6
CONTINUOUS
 10
526.445041101
 20
583.4999564513
 11
526.174945615
 21
583.8000242681
  0
LINE
  5
8B1
100
AcDbEntity
  8
_____1
100
AcDbLine
 62
7
  6
CONTINUOUS
 10
526.445041101
 20
585.5999144044
 11
526.174945615
 21
585.8999822211
  0
LINE
  5
8B2
100
AcDbEntity
  8
_____1
100
AcDbLine
 62
7
  6
CONTINUOUS
 10
526.7151365871
 20
585.5999144044
 11
526.9848875636
 21
585.3000188424
  0
LINE
  5
8B3
100
AcDbEntity
  8
_____1
100
AcDbLine
 62
7
  6
CONTINUOUS
 10
526.7151365871
 20
587.1000812334
 11
526.9848875636
 21
586.8000134167
  0
LINE
  5
8B4
100
AcDbEntity
  8
_____1
100
AcDbLine
 62
7
  6
CONTINUOUS
 10
592.8099824907
 20
583.8000242681
 11
592.6749347477
 21
584.0999198301
  0
LINE
  5
8B5
100
AcDbEntity
  8
_____1
100
AcDbLine
 62
7
  6
CONTINUOUS
 10
593.3498289532
 20
586.8000134167
 11
593.4848766962
 21
586.4999455999
  0
LINE
  5
8B6
100
AcDbEntity
  8
_____1
100
AcDbLine
 62
7
  6
CONTINUOUS
 10
726.0800562421
 20
587.1000812334
 11
726.0800562421
 21
583.4999564513
  0
LINE
  5
8B7
100
AcDbEntity
  8
_____1
100
AcDbLine
 62
7
  6
CONTINUOUS
 10
728.2401311113
 20
587.1000812334
 11
728.2401311113
 21
583.4999564513
  0
LINE
  5
8B8
100
AcDbEntity
  8
_____1
100
AcDbLine
 62
7
  6
CONTINUOUS
 10
831.849999792
 20
474.0999157886
 11
831.9850475351
 21
474.3999836054
  0
LINE
  5
8B9
100
AcDbEntity
  8
_____1
100
AcDbLine
 62
7
  6
CONTINUOUS
 10
831.849999792
 20
471.9999578356
 11
832.1200952781
 21
472.5999212143
  0
LINE
  5
8BA
100
AcDbEntity
  8
_____1
100
AcDbLine
 62
7
  6
CONTINUOUS
 10
593.0800779767
 20
583.4999564513
 11
592.8099824907
 21
583.8000242681
  0
LINE
  5
8BB
100
AcDbEntity
  8
_____1
100
AcDbLine
 62
7
  6
CONTINUOUS
 10
593.0800779767
 20
587.1000812334
 11
593.3498289532
 21
586.8000134167
  0
LINE
  5
8BC
100
AcDbEntity
  8
_____1
100
AcDbLine
 62
7
  6
CONTINUOUS
 10
831.0400578435
 20
121.6001573047
 11
830.9050101004
 21
121.8998806119
  0
LINE
  5
8BD
100
AcDbEntity
  8
_____1
100
AcDbLine
 62
7
  6
CONTINUOUS
 10
831.1751055865
 20
121.3000894879
 11
831.0400578435
 21
121.6001573047
  0
LINE
  5
8BE
100
AcDbEntity
  8
_____1
100
AcDbLine
 62
7
  6
CONTINUOUS
 10
831.9850475351
 20
124.3000786365
 11
832.1200952781
 21
124.0000108197
  0
LINE
  5
8BF
100
AcDbEntity
  8
_____1
100
AcDbLine
 62
7
  6
CONTINUOUS
 10
661.3349987496
 20
584.0999198301
 11
661.1999510066
 21
584.7000554636
  0
LINE
  5
8C0
100
AcDbEntity
  8
_____1
100
AcDbLine
 62
7
  6
CONTINUOUS
 10
662.1449406982
 20
586.4999455999
 11
662.2799884412
 21
585.8999822211
  0
LINE
  5
8C1
100
AcDbEntity
  8
_____1
100
AcDbLine
 62
7
  6
CONTINUOUS
 10
763.0001110289
 20
586.4999455999
 11
763.0001110289
 21
582.5000174868
  0
LINE
  5
8C2
100
AcDbEntity
  8
_____1
100
AcDbLine
 62
7
  6
CONTINUOUS
 10
798.4132810504
 20
584.3936142202
 11
798.2782333074
 21
583.4937552795
  0
LINE
  5
8C3
100
AcDbEntity
  8
_____1
100
AcDbLine
 62
7
  6
CONTINUOUS
 10
832.1200952781
 20
402.6000595782
 11
831.9850475351
 21
402.2999917614
  0
LINE
  5
8C4
100
AcDbEntity
  8
_____1
100
AcDbLine
 62
7
  6
CONTINUOUS
 10
830.9050101004
 20
404.7000175312
 11
831.1751055865
 21
405.29998091
  0
LINE
  5
8C5
100
AcDbEntity
  8
_____1
100
AcDbLine
 62
7
  6
CONTINUOUS
 10
593.0800779767
 20
584.9999510256
 11
592.6749347477
 21
585.3000188424
  0
LINE
  5
8C6
100
AcDbEntity
  8
_____1
100
AcDbLine
 62
7
  6
CONTINUOUS
 10
831.579904306
 20
335.6000148358
 11
831.849999792
 21
335.299947019
  0
LINE
  5
8C7
100
AcDbEntity
  8
_____1
100
AcDbLine
 62
7
  6
CONTINUOUS
 10
661.4700464926
 20
583.8000242681
 11
661.3349987496
 21
584.0999198301
  0
LINE
  5
8C8
100
AcDbEntity
  8
_____1
100
AcDbLine
 62
7
  6
CONTINUOUS
 10
662.0098929552
 20
586.8000134167
 11
662.1449406982
 21
586.4999455999
  0
LINE
  5
8C9
100
AcDbEntity
  8
_____1
100
AcDbLine
 62
7
  6
CONTINUOUS
 10
796.6580049007
 20
587.0937078068
 11
796.6580049007
 21
583.4937552795
  0
LINE
  5
8CA
100
AcDbEntity
  8
_____1
100
AcDbLine
 62
7
  6
CONTINUOUS
 10
799.3579262325
 20
586.493744428
 11
799.3579262325
 21
585.8936087945
  0
LINE
  5
8CB
100
AcDbEntity
  8
_____1
100
AcDbLine
 62
7
  6
CONTINUOUS
 10
830.9050101004
 20
543.0001029458
 11
831.579904306
 21
546.5998832184
  0
LINE
  5
8CC
100
AcDbEntity
  8
_____1
100
AcDbLine
 62
7
  6
CONTINUOUS
 10
832.1200952781
 20
332.8999212492
 11
831.849999792
 21
332.2999578705
  0
LINE
  5
8CD
100
AcDbEntity
  8
_____1
100
AcDbLine
 62
7
  6
CONTINUOUS
 10
661.7401419787
 20
583.4999564513
 11
661.4700464926
 21
583.8000242681
  0
LINE
  5
8CE
100
AcDbEntity
  8
_____1
100
AcDbLine
 62
7
  6
CONTINUOUS
 10
831.714952049
 20
405.6000487267
 11
831.9850475351
 21
405.29998091
  0
LINE
  5
8CF
100
AcDbEntity
  8
_____1
100
AcDbLine
 62
7
  6
CONTINUOUS
 10
661.7401419787
 20
587.1000812334
 11
662.0098929552
 21
586.8000134167
  0
LINE
  5
8D0
100
AcDbEntity
  8
_____1
100
AcDbLine
 62
7
  6
CONTINUOUS
 10
831.444856563
 20
401.9999239446
 11
831.1751055865
 21
402.2999917614
  0
LINE
  5
8D1
100
AcDbEntity
  8
_____1
100
AcDbLine
 62
7
  6
CONTINUOUS
 10
830.9050101004
 20
121.8998806119
 11
830.7699623574
 21
122.8000840622
  0
LINE
  5
8D2
100
AcDbEntity
  8
_____1
100
AcDbLine
 62
7
  6
CONTINUOUS
 10
829.5001001615
 20
582.5000174868
 11
829.5001001615
 21
17.0001681815
  0
LINE
  5
8D3
100
AcDbEntity
  8
_____1
100
AcDbLine
 62
7
  6
CONTINUOUS
 10
830.9050101004
 20
475.5999103629
 11
830.9050101004
 21
471.9999578356
  0
LINE
  5
8D4
100
AcDbEntity
  8
_____1
100
AcDbLine
 62
7
  6
CONTINUOUS
 10
831.0400578435
 20
54.5999403075
 11
831.0400578435
 21
51.000160035
  0
LINE
  5
8D5
100
AcDbEntity
  8
_____1
100
AcDbLine
 62
7
  6
CONTINUOUS
 10
831.0400578435
 20
191.9999945267
 11
831.0400578435
 21
195.6001193087
  0
LINE
  5
8D6
100
AcDbEntity
  8
_____1
100
AcDbLine
 62
7
  6
CONTINUOUS
 10
831.0400578435
 20
261.9998561628
 11
831.0400578435
 21
265.5999809449
  0
LINE
  5
8D7
100
AcDbEntity
  8
_____1
100
AcDbLine
 62
7
  6
CONTINUOUS
 10
831.0400578435
 20
332.0000623085
 11
831.0400578435
 21
335.6000148358
  0
LINE
  5
8D8
100
AcDbEntity
  8
_____1
100
AcDbLine
 62
7
  6
CONTINUOUS
 10
831.9850475351
 20
474.3999836054
 11
831.9850475351
 21
475.3000148009
  0
LINE
  5
8D9
100
AcDbEntity
  8
_____1
100
AcDbLine
 62
7
  6
CONTINUOUS
 10
832.1200952781
 20
122.8000840622
 11
832.1200952781
 21
121.6001573047
  0
LINE
  5
8DA
100
AcDbEntity
  8
_____1
100
AcDbLine
 62
7
  6
CONTINUOUS
 10
832.1200952781
 20
54.5999403075
 11
832.1200952781
 21
51.000160035
  0
LINE
  5
8DB
100
AcDbEntity
  8
_____1
100
AcDbLine
 62
7
  6
CONTINUOUS
 10
832.1200952781
 20
472.5999212143
 11
832.1200952781
 21
473.4999524098
  0
LINE
  5
8DC
100
AcDbEntity
  8
_____1
100
AcDbLine
 62
7
  6
CONTINUOUS
 10
841.0001734009
 20
593.9999184713
 11
841.0001734009
 21
0.0
  0
LINE
  5
8DD
100
AcDbEntity
  8
0
100
AcDbLine
 62
7
  6
CONTINUOUS
 10
841.0001734009
 20
0.0
 11
841.0001734009
 21
593.9999184713
  0
LINE
  5
8DE
100
AcDbEntity
  8
_____1
100
AcDbLine
 62
7
  6
CONTINUOUS
 10
830.7699623574
 20
403.7999863357
 11
830.9050101004
 21
404.7000175312
  0
LINE
  5
8DF
100
AcDbEntity
  8
_____1
100
AcDbLine
 62
7
  6
CONTINUOUS
 10
832.2551430211
 20
333.7999524448
 11
832.1200952781
 21
332.8999212492
  0
LINE
  5
8E0
100
AcDbEntity
  8
_____1
100
AcDbLine
 62
7
  6
CONTINUOUS
 10
830.7699623574
 20
122.8000840622
 11
830.9050101004
 21
123.6999430029
  0
LINE
  5
8E1
100
AcDbEntity
  8
_____1
100
AcDbLine
 62
7
  6
CONTINUOUS
 10
830.9050101004
 20
123.6999430029
 11
831.1751055865
 21
124.3000786365
  0
LINE
  5
8E2
100
AcDbEntity
  8
_____1
100
AcDbLine
 62
7
  6
CONTINUOUS
 10
832.1200952781
 20
121.6001573047
 11
831.9850475351
 21
121.3000894879
  0
LINE
  5
8E3
100
AcDbEntity
  8
_____1
100
AcDbLine
 62
7
  6
CONTINUOUS
 10
831.1751055865
 20
124.3000786365
 11
831.444856563
 21
124.6001464532
  0
LINE
  5
8E4
100
AcDbEntity
  8
_____1
100
AcDbLine
 62
7
  6
CONTINUOUS
 10
831.9850475351
 20
121.3000894879
 11
831.714952049
 21
121.0000216711
  0
LINE
  5
8E5
100
AcDbEntity
  8
_____1
100
AcDbLine
 62
7
  6
CONTINUOUS
 10
798.9531275129
 20
587.0937078068
 11
799.2228784894
 21
586.79363999
  0
LINE
  5
8E6
100
AcDbEntity
  8
_____1
100
AcDbLine
 62
7
  6
CONTINUOUS
 10
831.9850475351
 20
475.3000148009
 11
831.849999792
 21
475.5999103629
  0
LINE
  5
8E7
100
AcDbEntity
  8
_____1
100
AcDbLine
 62
7
  6
CONTINUOUS
 10
799.2228784894
 20
586.79363999
 11
799.3579262325
 21
586.493744428
  0
LINE
  5
8E8
100
AcDbEntity
  8
_____1
100
AcDbLine
 62
7
  6
CONTINUOUS
 10
831.849999792
 20
335.299947019
 11
832.1200952781
 21
334.6999836403
  0
LINE
  5
8E9
100
AcDbEntity
  8
_____1
100
AcDbLine
 62
7
  6
CONTINUOUS
 10
831.1751055865
 20
402.2999917614
 11
830.9050101004
 21
402.8999551402
  0
LINE
  5
8EA
100
AcDbEntity
  8
_____1
100
AcDbLine
 62
7
  6
CONTINUOUS
 10
831.9850475351
 20
405.29998091
 11
832.1200952781
 21
404.9999130932
  0
LINE
  5
8EB
100
AcDbEntity
  8
_____1
100
AcDbLine
 62
7
  6
CONTINUOUS
 10
832.1200952781
 20
473.4999524098
 11
831.849999792
 21
474.0999157886
  0
LINE
  5
8EC
100
AcDbEntity
  8
_____1
100
AcDbLine
 62
7
  6
CONTINUOUS
 10
831.579904306
 20
546.5998832184
 11
832.2551430211
 21
543.0001029458
  0
LINE
  5
8ED
100
AcDbEntity
  8
_____1
100
AcDbLine
 62
7
  6
CONTINUOUS
 10
832.1200952781
 20
334.6999836403
 11
832.2551430211
 21
333.7999524448
  0
LINE
  5
8EE
100
AcDbEntity
  8
_____1
100
AcDbLine
 62
7
  6
CONTINUOUS
 10
830.9050101004
 20
402.8999551402
 11
830.7699623574
 21
403.7999863357
  0
ARC
  5
8EF
100
AcDbEntity
  8
_____1
100
AcDbCircle
 62
7
  6
CONTINUOUS
 10
319.1160347695
 20
363.9761170449
 40
165.0003829163
100
AcDbArc
 50
315.2000587508
 51
45.0665446354
  0
ARC
  5
8F0
100
AcDbEntity
  8
_____1
100
AcDbCircle
 62
7
  6
CONTINUOUS
 10
319.1164072024
 20
363.9760894031
 40
149.9999827906
100
AcDbArc
 50
134.9333287345
 51
224.8000508429
  0
ARC
  5
8F1
100
AcDbEntity
  8
_____1
100
AcDbCircle
 62
7
  6
CONTINUOUS
 10
319.097053819
 20
363.9938474286
 40
125.0796269512
100
AcDbArc
 50
311.7209055164
 51
317.9999562653
  0
ARC
  5
8F2
100
AcDbEntity
  8
_____1
100
AcDbCircle
 62
7
  6
CONTINUOUS
 10
319.0841933077
 20
363.9445089815
 40
124.9344443993
100
AcDbArc
 50
221.9991445149
 51
228.0995344998
  0
ARC
  5
8F3
100
AcDbEntity
  8
_____1
100
AcDbCircle
 62
7
  6
CONTINUOUS
 10
319.1163328272
 20
363.9760747968
 40
116.5713538867
100
AcDbArc
 50
133.9999598658
 51
221.9999959869
  0
ARC
  5
8F4
100
AcDbEntity
  8
_____1
100
AcDbCircle
 62
7
  6
CONTINUOUS
 10
261.4638567932
 20
306.7249689088
 40
83.7503937249
100
AcDbArc
 50
224.8002446555
 51
313.5024665281
  0
ARC
  5
8F5
100
AcDbEntity
  8
_____1
100
AcDbCircle
 62
7
  6
CONTINUOUS
 10
261.4634010017
 20
306.7246131585
 40
68.750432154
100
AcDbArc
 50
301.9002835624
 51
18.9998443534
  0
ARC
  5
8F6
100
AcDbEntity
  8
_____1
100
AcDbCircle
 62
7
  6
CONTINUOUS
 10
261.463981472
 20
306.7248518933
 40
68.75032809
100
AcDbArc
 50
224.8001681746
 51
301.8997677288
  0
ARC
  5
8F7
100
AcDbEntity
  8
_____1
100
AcDbCircle
 62
7
  6
CONTINUOUS
 10
258.7361252714
 20
309.6094947457
 40
68.750248101
100
AcDbArc
 50
221.9999448808
 51
296.9997792735
  0
ARC
  5
8F8
100
AcDbEntity
  8
_____1
100
AcDbCircle
 62
7
  6
CONTINUOUS
 10
258.7359853023
 20
309.6090979856
 40
68.7499581293
100
AcDbArc
 50
297.0000333232
 51
12.0001777471
  0
ARC
  5
8F9
100
AcDbEntity
  8
_____1
100
AcDbCircle
 62
7
  6
CONTINUOUS
 10
319.116100459
 20
363.9759956257
 40
40.6574404432
100
AcDbArc
 50
329.4134948818
 51
49.8041193017
  0
ARC
  5
8FA
100
AcDbEntity
  8
_____1
100
AcDbCircle
 62
7
  6
CONTINUOUS
 10
319.1164371394
 20
363.9761246923
 40
35.6353145524
100
AcDbArc
 50
5.9530041597
 51
89.9999974549
  0
ARC
  5
8FB
100
AcDbEntity
  8
_____1
100
AcDbCircle
 62
7
  6
CONTINUOUS
 10
319.116390274
 20
363.976053938
 40
35.6352721291
100
AcDbArc
 50
174.0468743494
 51
258.0940138387
  0
ARC
  5
8FC
100
AcDbEntity
  8
_____1
100
AcDbCircle
 62
7
  6
CONTINUOUS
 10
319.1164290218
 20
363.9760508639
 40
14.9999360423
100
AcDbArc
 50
179.9999629466
 51
270.0000370534
  0
ARC
  5
8FD
100
AcDbEntity
  8
_____1
100
AcDbCircle
 62
7
  6
CONTINUOUS
 10
300.4915289828
 20
369.7374999046
 40
2.5000712667
100
AcDbArc
 50
91.5034458336
 51
180.0007770341
  0
CIRCLE
  5
8FE
100
AcDbEntity
  8
_____1
100
AcDbCircle
 62
7
  6
CONTINUOUS
 10
289.1943202673
 20
383.3291428349
 40
2.5000196677
  0
CIRCLE
  5
8FF
100
AcDbEntity
  8
_____1
100
AcDbCircle
 62
7
  6
CONTINUOUS
 10
284.7414482253
 20
385.6868800577
 40
2.4999335389
  0
ARC
  5
900
100
AcDbEntity
  8
_____1
100
AcDbCircle
 62
7
  6
CONTINUOUS
 10
300.4914116156
 20
326.4758729092
 40
2.4997824955
100
AcDbArc
 50
224.997222039
 51
269.9995333322
  0
ARC
  5
901
100
AcDbEntity
  8
_____1
100
AcDbCircle
 62
7
  6
CONTINUOUS
 10
300.4912402117
 20
326.4760443131
 40
2.4997824955
100
AcDbArc
 50
180.0004666678
 51
225.002777961
  0
CIRCLE
  5
902
100
AcDbEntity
  8
_____1
100
AcDbCircle
 62
7
  6
CONTINUOUS
 10
300.3665065438
 20
331.4760632852
 40
1.1249959307
  0
CIRCLE
  5
903
100
AcDbEntity
  8
_____1
100
AcDbCircle
 62
7
  6
CONTINUOUS
 10
300.3665065438
 20
368.9760998969
 40
1.1249959307
  0
ARC
  5
904
100
AcDbEntity
  8
_____1
100
AcDbCircle
 62
7
  6
CONTINUOUS
 10
319.116353938
 20
445.2261493188
 40
41.2672370238
100
AcDbArc
 50
221.8361817414
 51
251.1421321937
  0
ARC
  5
905
100
AcDbEntity
  8
_____1
100
AcDbCircle
 62
7
  6
CONTINUOUS
 10
319.1163966914
 20
445.2260550964
 40
28.9560690612
100
AcDbArc
 50
300.0000486143
 51
89.9999359208
  0
ARC
  5
906
100
AcDbEntity
  8
_____1
100
AcDbCircle
 62
7
  6
CONTINUOUS
 10
319.1164311698
 20
445.2260613149
 40
17.0000034792
100
AcDbArc
 50
270.0000254544
 51
359.9999745456
  0
ARC
  5
907
100
AcDbEntity
  8
_____1
100
AcDbCircle
 62
7
  6
CONTINUOUS
 10
319.1163013934
 20
445.2260886888
 40
15.0000830717
100
AcDbArc
 50
359.9998665916
 51
89.999475445
  0
ARC
  5
908
100
AcDbEntity
  8
_____1
100
AcDbCircle
 62
7
  6
CONTINUOUS
 10
319.116427871
 20
513.9760116306
 40
14.3750285476
100
AcDbArc
 50
89.9999567492
 51
175.2867795598
  0
ARC
  5
909
100
AcDbEntity
  8
_____1
100
AcDbCircle
 62
7
  6
CONTINUOUS
 10
319.1165248497
 20
363.9758184918
 40
165.0002481349
100
AcDbArc
 50
45.0667383312
 51
134.9332616688
  0
ARC
  5
90A
100
AcDbEntity
  8
_____1
100
AcDbCircle
 62
7
  6
CONTINUOUS
 10
319.116707923
 20
363.9760312306
 40
165.0002268324
100
AcDbArc
 50
134.9333588481
 51
224.7999530762
  0
ARC
  5
90B
100
AcDbEntity
  8
_____1
100
AcDbCircle
 62
7
  6
CONTINUOUS
 10
319.1164387223
 20
363.9760324459
 40
150.0000453742
100
AcDbArc
 50
45.0666781082
 51
134.9333218918
  0
ARC
  5
90C
100
AcDbEntity
  8
_____1
100
AcDbCircle
 62
7
  6
CONTINUOUS
 10
319.1166914043
 20
363.9760899177
 40
149.9998262232
100
AcDbArc
 50
315.1998894916
 51
45.066730931
  0
ARC
  5
90D
100
AcDbEntity
  8
_____1
100
AcDbCircle
 62
7
  6
CONTINUOUS
 10
319.1165446174
 20
363.9760747968
 40
116.5713538867
100
AcDbArc
 50
318.0000040131
 51
46.0000401342
  0
ARC
  5
90E
100
AcDbEntity
  8
_____1
100
AcDbCircle
 62
7
  6
CONTINUOUS
 10
319.1164387223
 20
363.9762135268
 40
116.5713276535
100
AcDbArc
 50
45.9999553271
 51
134.0000446729
  0
ARC
  5
90F
100
AcDbEntity
  8
_____1
100
AcDbCircle
 62
7
  6
CONTINUOUS
 10
376.7690206514
 20
306.7249689088
 40
83.7503937249
100
AcDbArc
 50
226.4975334719
 51
315.1997553445
  0
ARC
  5
910
100
AcDbEntity
  8
_____1
100
AcDbCircle
 62
7
  6
CONTINUOUS
 10
376.769342941
 20
306.7246432518
 40
68.750296128
100
AcDbArc
 50
161.0001431376
 51
238.0999460202
  0
ARC
  5
911
100
AcDbEntity
  8
_____1
100
AcDbCircle
 62
7
  6
CONTINUOUS
 10
376.7689940219
 20
306.7246415535
 40
68.7501103043
100
AcDbArc
 50
238.1001921414
 51
315.1998986312
  0
ARC
  5
912
100
AcDbEntity
  8
_____1
100
AcDbCircle
 62
7
  6
CONTINUOUS
 10
379.4968921423
 20
309.6090979856
 40
68.7499581293
100
AcDbArc
 50
167.9998222529
 51
242.9999666768
  0
ARC
  5
913
100
AcDbEntity
  8
_____1
100
AcDbCircle
 62
7
  6
CONTINUOUS
 10
379.4967017785
 20
309.6091897089
 40
68.7499534322
100
AcDbArc
 50
243.000142737
 51
318.0001760834
  0
ARC
  5
914
100
AcDbEntity
  8
_____1
100
AcDbCircle
 62
7
  6
CONTINUOUS
 10
319.1164387223
 20
363.9760294545
 40
40.657196288
100
AcDbArc
 50
49.8044526528
 51
130.1955473472
  0
ARC
  5
915
100
AcDbEntity
  8
_____1
100
AcDbCircle
 62
7
  6
CONTINUOUS
 10
319.1165752382
 20
363.9761462955
 40
40.6571951469
100
AcDbArc
 50
130.1958005683
 51
210.5869560932
  0
ARC
  5
916
100
AcDbEntity
  8
_____1
100
AcDbCircle
 62
7
  6
CONTINUOUS
 10
319.1164387223
 20
363.9714618406
 40
40.6524372632
100
AcDbArc
 50
260.2748267316
 51
279.7251732684
  0
ARC
  5
917
100
AcDbEntity
  8
_____1
100
AcDbCircle
 62
7
  6
CONTINUOUS
 10
319.1164403052
 20
363.9761246923
 40
35.6353145524
100
AcDbArc
 50
90.0000025451
 51
174.0469958403
  0
ARC
  5
918
100
AcDbEntity
  8
_____1
100
AcDbCircle
 62
7
  6
CONTINUOUS
 10
319.1164871706
 20
363.976053938
 40
35.6352721291
100
AcDbArc
 50
281.9059861613
 51
5.9531256506
  0
ARC
  5
919
100
AcDbEntity
  8
_____1
100
AcDbCircle
 62
7
  6
CONTINUOUS
 10
319.1164387223
 20
363.9758771966
 40
35.6351091851
100
AcDbArc
 50
258.0938789903
 51
281.9061210097
  0
ARC
  5
91A
100
AcDbEntity
  8
_____1
100
AcDbCircle
 62
7
  6
CONTINUOUS
 10
319.1164484228
 20
363.9760508639
 40
14.9999360423
100
AcDbArc
 50
269.9999629466
 51
0.0000370534
  0
CIRCLE
  5
91B
100
AcDbEntity
  8
_____1
100
AcDbCircle
 62
7
  6
CONTINUOUS
 10
349.0385571773
 20
383.3291428349
 40
2.5000196677
  0
ARC
  5
91C
100
AcDbEntity
  8
_____1
100
AcDbCircle
 62
7
  6
CONTINUOUS
 10
337.7414652933
 20
369.7376137084
 40
2.4999544393
100
AcDbArc
 50
359.9966146908
 51
88.4991624415
  0
CIRCLE
  5
91D
100
AcDbEntity
  8
_____1
100
AcDbCircle
 62
7
  6
CONTINUOUS
 10
353.4914292194
 20
385.6868800577
 40
2.4999335389
  0
ARC
  5
91E
100
AcDbEntity
  8
_____1
100
AcDbCircle
 62
7
  6
CONTINUOUS
 10
337.7416372329
 20
326.4760443131
 40
2.4997824955
100
AcDbArc
 50
314.997222039
 51
359.9995333322
  0
ARC
  5
91F
100
AcDbEntity
  8
_____1
100
AcDbCircle
 62
7
  6
CONTINUOUS
 10
337.7415900913
 20
326.4755729374
 40
2.4994825258
100
AcDbArc
 50
269.9976182514
 51
315.0056263774
  0
CIRCLE
  5
920
100
AcDbEntity
  8
_____1
100
AcDbCircle
 62
7
  6
CONTINUOUS
 10
337.8665431556
 20
331.4760632852
 40
1.1249959307
  0
CIRCLE
  5
921
100
AcDbEntity
  8
_____1
100
AcDbCircle
 62
7
  6
CONTINUOUS
 10
337.8665431556
 20
368.9760998969
 40
1.1249959307
  0
ARC
  5
922
100
AcDbEntity
  8
_____1
100
AcDbCircle
 62
7
  6
CONTINUOUS
 10
319.1170050339
 20
445.2251239776
 40
41.4457671425
100
AcDbArc
 50
288.8878675556
 51
314.1338224415
  0
ARC
  5
923
100
AcDbEntity
  8
_____1
100
AcDbCircle
 62
7
  6
CONTINUOUS
 10
319.1164807532
 20
445.2260550964
 40
28.9560690612
100
AcDbArc
 50
90.0000640792
 51
239.9999513857
  0
ARC
  5
924
100
AcDbEntity
  8
_____1
100
AcDbCircle
 62
7
  6
CONTINUOUS
 10
319.1164462748
 20
445.2260613149
 40
17.0000034792
100
AcDbArc
 50
180.0000254544
 51
269.9999745456
  0
ARC
  5
925
100
AcDbEntity
  8
_____1
100
AcDbCircle
 62
7
  6
CONTINUOUS
 10
319.1165760512
 20
445.2260886888
 40
15.0000830717
100
AcDbArc
 50
90.000524555
 51
180.0001334084
  0
ARC
  5
926
100
AcDbEntity
  8
_____1
100
AcDbCircle
 62
7
  6
CONTINUOUS
 10
319.1165616834
 20
513.9761333641
 40
14.3749068147
100
AcDbArc
 50
4.7127735904
 51
90.0004901006
  0
CIRCLE
  5
927
100
AcDbEntity
  8
_____1
100
AcDbCircle
 62
7
  6
CONTINUOUS
 10
319.1165248497
 20
513.9761208839
 40
2.5000196677
  0
ENDSEC
  0
SECTION
  2
OBJECTS
  0
DICTIONARY
  5
C
100
AcDbDictionary
280
0
281
1
  3
ACAD_GROUP
350
D
  3
ACAD_MLINESTYLE
350
17
  3
ACAD_LAYOUT
350
1A
  3
ACAD_PLOTSETTINGS
350
19
  3
ACAD_PLOTSTYLENAME
350
E
  0
DICTIONARY
  5
D
102
{ACAD_REACTORS
330
C
102
}
100
AcDbDictionary
280
0
281
1
  0
ACDBDICTIONARYWDFLT
  5
E
102
{ACAD_REACTORS
330
C
102
}
100
AcDbDictionary
281
1
  3
Normal
350
F
100
AcDbDictionaryWithDefault
340
F
  0
DICTIONARY
  5
17
102
{ACAD_REACTORS
330
C
102
}
100
AcDbDictionary
280
0
281
1
  3
Standard
350
18
  0
DICTIONARY
  5
19
102
{ACAD_REACTORS
330
C
102
}
100
AcDbDictionary
281
1
  0
DICTIONARY
  5
1A
102
{ACAD_REACTORS
330
C
102
}
100
AcDbDictionary
281
1
  3
Model
350
928
  3
Layout1
350
929
  0
ACDBPLACEHOLDER
  5
F
102
{ACAD_REACTORS
330
E
102
}
  0
MLINESTYLE
  5
18
102
{ACAD_REACTORS
330
17
102
}
100
AcDbMlineStyle
  2
STANDARD
 70
0
  3

 62
256
 51
90.0
 52
90.0
 71
2
 49
0.5
 62
256
  6
BYLAYER
 49
-0.5
 62
256
  6
BYLAYER
  0
LAYOUT
  5
928
102
{ACAD_REACTORS
330
1A
102
}
100
AcDbPlotSettings
  1

  2
none_device
  4

  6

 40
0.0
 41
0.0
 42
0.0
 43
0.0
 44
21361.4044043819
 45
15087.5979291708
 46
0.0
 47
0.0
 48
0.0
 49
0.0
140
0.0
141
0.0
142
1.0
143
1.0
 70
1024
 72
0
 73
0
 74
0
  7

 75
0
147
1.0
148
0.0
149
0.0
100
AcDbLayout
  1
Model
 70
0
 71
0
 10
0.0
 20
0.0
 11
841.0001734009
 21
593.9999184713
 12
0.0
 22
0.0
 32
0.0
 14
0.0
 24
0.0
 34
0.0
 15
0.0
 25
0.0
 35
0.0
146
0.0
 13
0.0
 23
0.0
 33
0.0
 16
1.0
 26
0.0
 36
0.0
 17
0.0
 27
1.0
 37
0.0
 76
0
330
20D
345
0
346
0
  0
LAYOUT
  5
929
102
{ACAD_REACTORS
330
1A
102
}
100
AcDbPlotSettings
  1

  2
none_device
  4

  6

 40
0.0
 41
0.0
 42
0.0
 43
0.0
 44
21361.4044043819
 45
15087.5979291708
 46
0.0
 47
0.0
 48
0.0
 49
0.0
140
0.0
141
0.0
142
1.0
143
1.0
 70
0
 72
0
 73
0
 74
0
  7

 75
0
147
1.0
148
0.0
149
0.0
100
AcDbLayout
  1
Layout1
 70
0
 71
1
 10
0.0
 20
0.0
 11
841.0001734009
 21
593.9999184713
 12
0.0
 22
0.0
 32
0.0
 14
0.0
 24
0.0
 34
0.0
 15
0.0
 25
0.0
 35
0.0
146
0.0
 13
0.0
 23
0.0
 33
0.0
 16
1.0
 26
0.0
 36
0.0
 17
0.0
 27
1.0
 37
0.0
 76
0
330
20E
345
0
346
0
  0
ENDSEC
  0
EOF
